Oops, an error
Loading. Please wait.

Cmon tab

version 1
version 1

Whole song

Interactive

1,620 views 1 this week
no commentswrite comment
1 2 3 4 5
1 last vote to show rating
add to favorites
×
Save as Personal and add changes to this tab that will be seen only by you. Learn more ›
×
You can save this tab as Personal to edit and correct it or add notes. All changes will be seen only by you. Learn more »
launch autoscroll
font size
0
reset
how to read this tab
guitar tuner
edit
Autoscroll
slow
fast
+/-
esc
set tempo
stop
Here are the chords for the song, i'm to lazy to send in every small
palm mute and upstroke so figure that out for yourself! ;)

Intro
E|------------------------------------------------------------------|
B|------------------------------------------------------------------|
G|-----------------------------------------------------------9~~9-9-|
D|------9-7-6-----------------------7-5-4--------------------9~~9-9-|
A|-7-77-------------6h7-6h7----5-55-------------4h5-4h5------7~~7-7-|
E|------------7-777-----------------------5-555--------------0~~~~~-|

Verse (Figure out the Rhytme, Throw in some palm mutes, its really ez)
E|---------------|
B|---------------|
G|-9-------------|
D|-9-9-11-7-9----|
A|-7-9-11-7-9----|
E|---7-9--5-7----|

Chorus (let it ring)
E|-------------|
B|-------------|
G|-9-----------|
D|-9-9-12-7-9--|
A|-7-9-12-7-7--|
E|---7-10-5-7--|


I'll send in the rest later, Have fun
Comments? Send them to Bust_my_rhymez@hotmail.com
Suggest correction
Creating personal tab
Creating personal tab
You can edit any tab online and save it as your Personal.

You can edit, replace or remove any tab part or add personal notes – all changes will be seen only by you.

Personal tabs can be accessed anytime from any device, even offline.
Learn more »
Give kudos to tab author, rate the tab!
1 2 3 4 5
comments
print report bad tab
guest
Wanna post a correction for this tab? Suggest correction