Oops, an error
Loading. Please wait.

Cmon tab

version 2
version 2

Whole song

Interactive

4,019 views 1 this week
3 commentsread comments
1 2 3 4 5
x 9
add to favorites
×
Save as Personal and add changes to this tab that will be seen only by you. Learn more ›
×
You can save this tab as Personal to edit and correct it or add notes. All changes will be seen only by you. Learn more »
launch autoscroll
font size
0
reset
how to read this tab
guitar tuner
edit
Autoscroll
slow
fast
+/-
esc
set tempo
stop
Author
I thought the whole song should be on here so here it is!
03/10/07: Update just little mistakes here and there.
2008/12/17: Final Update I'm done with this now and happy with it. 
2008/12/18: not quite done found mistake in verse and outro now I'm done

Intro:
E|------------------------------------------------------|
B|------------------------------------------------------|
G|------------------------------------------------------|
D|-------9-7-6----------------------7-5-4---------------|
A|--7-77-------------6h7-6h7--5-555-------------4h5-4h5-|
E|-------------7-777----------------------5-555---------|x2

E|-----|
B|-----|
G|--9~-|
D|--9~-|
A|--7~-|
E|--0~-|

Verse 1:
E|------------------------------------------------------------|
B|------------------------------------------------------------|
G|9-999999999-------------------------------------------------|
D|9-999999999-9-999999999-1111111111111111117777777799999999--|
A|7-777777777-9-999999999-1111111111111111117777777799999999--|
E|------------7-777777777-9-9-9-9-9-9-9-9-9-5555555577777777--|X2
    *********   **** ** *   ****************** ** * ** ** *  

Chorus 1:
E|------------------------------------------------|
B|------------------------------------------------|
G|9-9-99-9-9-9------------------------------------|
D|9-9-99-9-9-9-9-9-99-9--12-1212-12-12-7-7-7-9-9-9|
A|7-7-77-7-7-7-9-9-99-9--12-1212-12-12-7-7-7-9-9-9|
E|-------------7-7-77-7--10-1010-10-10-5-5-5-7-7-7|

Verse 2:
E|------------------------------------------------------------|
B|------------------------------------------------------------|
G|9-999999999-------------------------------------------------|
D|9-999999999-9-999999999-111111111111111111------------------|
A|7-777777777-9-999999999-111111111111111111---7--7-7--9--9-9-|
E|------------7-777777777-9-9-9-9-9-9-9-9-9--55-55-5-77-77-7--|
    *********   **** ** *   **************** 

E|------------------------------------------------------------|
B|------------------------------------------------------------|
G|9-999999999-------------------------------------------------|
D|9-999999999-9-999999999-1111111111111111117777777799999999--|
A|7-777777777-9-999999999-1111111111111111117777777799999999--|
E|------------7-777777777-9-9-9-9-9-9-9-9-9-5555555577777777--|
    *********   **** ** *   ****************** ** * ** ** * 

Chorus 2:
E|------------------------------------------------|
B|------------------------------------------------|
G|9-9-99-9-9-9------------------------------------|
D|9-9-99-9-9-9-9-9-99-9--12-1212-12-12-7-7-7-9-9-9|
A|7-7-77-7-7-7-9-9-99-9--12-1212-12-12-7-7-7-9-9-9|
E|-------------7-7-77-7--10-1010-10-10-5-5-5-7-7-7|x2 

Bridge:
E|-------------------------------------------------|
B|-------------------------------------------------|
G|-------------------------------------------------|
D|11----------9----------7-------------------------|
A|11----------9----------7-------------------------|
E|9-----------7----------5-------------------------|X2
  Let Ring
Then:

E|------------------------------------------------|
B|------------------------------------------------|
G|------------------------------------------9~----|
D|1111111111119999999999977777777777999999999~----|
A|1111111111119999999999977777777777999999997~----|
E|9-9-9-9-9-9-777777777775555555555577777777------|
  

Solo:

E|--------------------------------------------------------------------|
B|--------------------------------------------------------------------|
G|--------------------------------------------------------------------|
D|--------666777999--------------------------444555777----------------|
A|77777777-----------------6-676-----55555555-----------77--77--7976--|
E|-----------------77777777------9-7------------------55--55--55----97|X2

E|------------------------------|
B|----------------------------9-|
G|9~--------------------------9-|
D|9~--------------------------9-|
A|7~----------------------------|
E|------------------------------|

E|-------------------------------------------------------|
B|-------------------------------------------------------|
G|9~---------------------9~------------------------------|
D|9~---9~---12~---7~-9~--9~---9~---12~---7777777799999999|
A|7~---9~---12~---7~-9~--7~---9~---12~---7777777799999999|
E|-----7~---10~---5~-7~-------7~---10~---5555555577777777|
                                         ****************

Outro Chorus:
gtr. 1 
E|------------------------------------------------|
B|------------------------------------------------|
G|9-----------------------------------------------|
D|9------------9---------12------------7-----9----|
A|7------------9---------12------------7-----9----|
E|-------------7---------10------------5-----7----|x4

 gtr. 1
/E|-----------------------------------------------------|
|B|-----------------------------------------------------|
|G|9----------------------------------------------------|
|D|9-------------9-----------12-------------7------9----|
|A|7-------------9-----------12-------------7------9----|
|E|--------------7-----------10-------------5------7----|
|
|gtr. 2 * not timed with guitar 1
|E|-----------------------------------------------------|
|B|-9-9-9-9-12-12-9-7-9-9h10-9~-9-0-9-10--0-9-0-9h10-9--|
|G|-----------------------------------------------------|
|D|-----------------------------------------------------|
|A|-----------------------------------------------------|
\E|-----------------------------------------------------|

 gtr. 1
/E|-----------------------------------------------------|
|B|-----------------------------------------------------|
|G|9~---------------------------------------------------|
|D|9~------------9~----------12~------------7~-----9~---|
|A|7~------------9~----------12~------------7~-----9~---|
|E|--------------7~----------10~------------5~-----7~---|x2
|
|gtr. 2 * not timed with guitar 1
|E|-----------------------------------------------------|
|B|-9-9-9-9-12-12-9-7-9-9h10-9~-9-0-9-10--0-9-0-9h10-9--|
|G|-----------------------------------------------------|
|D|-----------------------------------------------------|
|A|-----------------------------------------------------|
\E|-----------------------------------------------------|
|
| gtr. 3
|E|------------------------------------------------|
|B|9-------11---7-----7--------10------5----7------|
|G|------------------------------------------------|
|D|------------------------------------------------|
|A|------------------------------------------------|
|E|------------------------------------------------|x2

Well That's my first tab be gentle.
Suggest correction
Creating personal tab
Creating personal tab
You can edit any tab online and save it as your Personal.

You can edit, replace or remove any tab part or add personal notes – all changes will be seen only by you.

Personal tabs can be accessed anytime from any device, even offline.
Learn more »
comments
print report bad tab
3 comments total.
0 reply
stratele 480 Jun 04, 2007 07:49 AM

Pritty good, a few mistakes but overall good

0 reply
Tirith 52 Apr 26, 2008 03:56 PM

Good job.

0 reply
mr.speaker 30 Dec 07, 2010 03:53 PM

Your tab is the first full one, well done, but as far as timing for playing it goes, Vers 4 is the best. if vers 4 was to fill in what it's missing with the stuff you have then it would be a completely perfect tab.

guest
You may want to rate the tab now too:
select rating
Wanna post a correction for this tab? Suggest correction