Oops, an error
Loading. Please wait.

Any Other Heart Tab

version 2
version 2

Whole song

3,442 views 1 this week
no commentswrite comment
1 2 3 4 5
2 more votes to show rating
add to favorites
launch autoscroll
font size
0
reset
how to read this tab
guitar tuner
Autoscroll
slow
fast
+/-
esc
set tempo
stop
Help us to improve Ultimate-Guitar.com Take our survey!
×
Author
Tuning
D# G# C# F# A# D#
----------------------------------------------------------------------------
                     "Any Other Heart" by Go Radio
----------------------------------------------------------------------------

Half-Step Down

VERSE

Rhythm
Db|-------------------------------------|
Ab|-------------------------------------|
Fb|-------------------------------------|   x2
Cb|-------------------------------------|
Gb|-------------------------------------|
Db|---4-4-4-4-0-0-0-0-7-7-7-7-2-2-2-2---|

PRE-CHORUS

Rhythm
Db|----------------------------------------------------|
Ab|----------------------------------------------------|
Fb|----------------------------------------------------|
Cb|----------------------------------------------------|
Gb|---7-7-7-7------------------------------------------|
Db|-----------2-2-2-2-4-4-4-4-0-0-0-0-2-2-2-2-7-7-6-6--|

Db|----------------------------------------------------|
Ab|----------------------------------------------------|
Fb|----------------------------------------------------|
Cb|----------------------------------------------------|
Gb|----------------------------------------------------|
Db|---4-4-2-2-0-0-0-0-2-2-2-2-7-7-2-2-0-0-0-0-0-0-0----|

Lead
Db|---11--11--9--9--7-7-7-7-11--11--9--9--------|
Ab|-----12--12-11-11-9-9-9-9--12--12-11-11------|
Fb|---------------------------------------------|
Cb|---------------------------------------------|
Gb|---------------------------------------------|
Db|---------------------------------------------|

Db|---11--9--7-6-11--11--9--9--11--11--9--9-----|
Ab|-----12-11-9-7--12--12-11-11--12--12-11-11---|
Fb|---------------------------------------------|
Cb|---------------------------------------------|
Gb|---------------------------------------------|
Db|---------------------------------------------|

Db|---7-7-7-7-7-7--9----|
Ab|----9-9-9-9-9-9-11---|
Fb|---------------------|
Cb|---------------------|
Gb|---------------------|
Db|---------------------|

CHORUS

Rhythm
Db|----------------------------------------------------|
Ab|----------------------------------------------------|
Fb|--------4------------------4------------------------|
Cb|---2----4----4--------2----4----6----4--------------|
Gb|---2----2----4--------2----2----6----4--------------|
Db|---0---------2--------0---------4----2--------------|

Db|----------------------------------------------------|
Ab|----------------------------------------------------|
Fb|--------4-------------------------------------------|
Cb|---2----4----6----4----0--------4-------------------|
Gb|---2----2----6----4----2--------4-------------------|
Db|---0---------4----2----2--------2-------------------|

Lead
Db|-----------------------------------|
Ab|-------7------7--4-4-4-4-2-2-2-2---|
Fb|---2/4----2/4----------------------|   
Cb|-----------------------------------|
Gb|-----------------------------------|
Db|-----------------------------------|

Db|-----------------7---7---6---6-----|
Ab|-------7------7----9---9---7---7---|
Fb|---2/4----2/4----------------------|   Repeat Both
Cb|-----------------------------------|
Gb|-----------------------------------|
Db|-----------------------------------|

FIRST SOLO

Rhythm
Db|-----------------------------------------|
Ab|-----------------------------------------|
Fb|-----------------------------------------|
Cb|---6----4----2--------6----4----2--------|
Gb|---6----4----2--------6----4----2--------|
Db|---4----2----0--------4----2----0--------|

Lead
Db|---------------------------------------------|
Ab|---9/12-11----------------9/12-11------------|
Fb|-----------13-11------------------13-11------|   x2
Cb|-----------------13-11-9----------------13---|
Gb|---------------------------------------------|
Db|---------------------------------------------|

Repeat Everything

Bridge

Rhythm
Db|------------------------------|
Ab|------------------------------|
Fb|------------4-----------------|
Cb|---2--------4--------4--------|
Gb|---2--------2--------4--------|
Db|---0-----------------2--------|

Db|-----------------------------------------------|
Ab|-----------------------------------------------|
Fb|-----------------------------6-----------------|
Cb|---2----------------6--------6--------2--------|
Gb|---2-------3--------6--------4--------2--------|
Db|---0-------6--------4--------4--------0--------|

Repeat Chorus
Suggest correction
Give kudos to tab author, rate the tab!
1 2 3 4 5
comments
print report bad tab
guest
You may want to rate the tab now too:
select rating
Wanna post a correction for this tab? Suggest correction