Oops, an error
Loading. Please wait.

Any Other Heart Tab

version 3
version 3

Whole song

3,818 views 1 this week
1 commentread comment
1 2 3 4 5
accurate
x 4
add to favorites
launch autoscroll
font size
0
reset
how to read this tab
guitar tuner
Autoscroll
slow
fast
+/-
esc
set tempo
stop
Help us to improve Ultimate-Guitar.com Take our survey!
×
Author
Tuning
B F# B E G# C#
----------------------------------------------------------------------------
                     "Any Other Heart" by Go Radio
----------------------------------------------------------------------------

Drop B Tuning guy's 

tab done by JaidenHubert

~ = let the chord ring
x = mute strings/stop chord

Chords Used

F#|----3----3----3----0----0----0-------------|
G#|----1----1----1----3----1----3-------------|
E |----2----2----0----0----0----0-------------|
B |----2----3----2----0----3----0-------------|
F#|--------------3----5----3----2-------------|
B |-------------------5----3------------------|

Verse
F#|----3----3----3----3----3----3----3----3----3----3----3----3----|
G#|-----1----1----1----1----1----1----1----1----1----1----1----1---|
E |---2----2----2----2----2----2----2----2----0----0----0----0-----|
B |--2----2----2----2----3----3----3----3--------------------------|
F#|------------------------------------------3----3----3----3------|
B |----------------------------------------------------------------|

F#|----0----0----0----0----|
G#|-----3----3----3----3---|
E |------------------------|
B |------------------------| x2
F#|---5----5----5----5-----|
B |--5----5----5----5------|

Bridge/Pre Chorus
F#|--0~---0~---3~---0~---0~---3-x-0-x-3-x-0-x-0~---0~---3-x-0-x-3-x-0-x---|
G#|--1~---3~---1~---1~---3~---1-x-3-x-1-x-3-x-1~---3~---1-x-3-x-1-x-3-x---|
E |--0~---0~---2~---0~---0~---0-x-0-x-2-x-0-x-0~---0~---0-x-0-x-2-x-0-x---|
B |--3~---5~---2~---3~---5~---2-x-0-x-2-x-5-x-3~---5~---2-x-0-x-2-x-5-x---|
F#|--3~---5~---0~---3~---5~---3-x-2-x-0-x-5-x-3~---5~---3-x-2-x-0-x-5-x---|
B |--3~---5~--------3~---5~-----x---x---x-5-x-3~---5~-----x---x---x-5-x---|

F#|--0~--0------0~-----------|
G#|--1~--1------3~-----------|
E |--0~--0------0~-----------|
B |--3~--3 x12--5~-----------|
F#|--3~--3------5~-----------|
B |--3~--3------5~-----------|

Chorus
F#|---3-----3-----0-------------3-----0~------------|
G#|---1-----1-----3-------------1-----3~------------|
E |---0-----0-----0-------------0-----0~------------|
B |---3 x8--2 x8--5 x16-- (x3)--3 x8--5~------------|
F#|---3-----3-----5-------------3-----5~------------|
B |---3-----------5-------------3-----5~------------|

Outta Chorus/Pre Verse
normally guitar 2 plays but sounds the part when playing solo

F#|-------------------------------------------|
G#|--13/12--10/8---------13/12--10/8----------|
E |--------------9/7-5---------------9--------| x2
B |-------------------------------------------|
F#|-------------------------------------------|
B |-------------------------------------------|

instead of guitar 2, guitar 1 will play 
F#|--3-----0-----0-------------------------------|
G#|--1-----1-----3-------------------------------|
E |--2 x8--0 x8--0 x16---------------------------|
B |--2-----3-----5-------------------------------|
F#|--------3-----5-------------------------------|
B |--------3-----5-------------------------------|

the repeat verse
Verse
F#|----3----3----3----3----3----3----3----3----3----3----3----3----|
G#|-----1----1----1----1----1----1----1----1----1----1----1----1---|
E |---2----2----2----2----2----2----2----2----0----0----0----0-----|
B |--2----2----2----2----3----3----3----3--------------------------|
F#|------------------------------------------3----3----3----3------|
B |----------------------------------------------------------------|

F#|----0----0----0----0----|
G#|-----3----3----3----3---|
E |------------------------|
B |------------------------| x2
F#|---5----5----5----5-----|
B |--5----5----5----5------|

Bridge/Pre Chorus
F#|--0~---0~---3~---0~---0~---3-x-0-x-3-x-0-x-0~---0~---3-x-0-x-3-x-0-x---|
G#|--1~---3~---1~---1~---3~---1-x-3-x-1-x-3-x-1~---3~---1-x-3-x-1-x-3-x---|
E |--0~---0~---2~---0~---0~---0-x-0-x-2-x-0-x-0~---0~---0-x-0-x-2-x-0-x---|
B |--3~---5~---2~---3~---5~---2-x-0-x-2-x-5-x-3~---5~---2-x-0-x-2-x-5-x---|
F#|--3~---5~---0~---3~---5~---3-x-2-x-0-x-5-x-3~---5~---3-x-2-x-0-x-5-x---|
B |--3~---5~--------3~---5~-----x---x---x-5-x-3~---5~-----x---x---x-5-x---|

F#|--0~--0------0~-----------|
G#|--1~--1------3~-----------|
E |--0~--0------0~-----------|
B |--3~--3 x12--5~-----------|
F#|--3~--3------5~-----------|
B |--3~--3------5~-----------|


Chorus
F#|---3-----3-----0-------------3-----0~------------|
G#|---1-----1-----3-------------1-----3~------------|
E |---0-----0-----0-------------0-----0~------------|
B |---3 x8--2 x8--5 x16-- (x3)--3 x8--5~------------|
F#|---3-----3-----5-------------3-----5~------------|
B |---3-----------5-------------3-----5~------------|

thats about it still working on the ending but thats the song hope you all enjoy 
Suggest correction
What's this?
You can suggest a correction to this tab. Community and Mods will review your correction and vote to approve or reject it.
comments
print report bad tab
1 comment total.
0 reply
robinson789 11 wrote on February 26 2012, 03:03 am

Sounds exactly like the real deal acoustic version though i believe thanks man keep it up. if you can can you tab one for house of hallways?
cheers

guest
You may want to rate the tab now too:
select rating
Please do not post tabs as comments. Select "correction" instead!