Oops, an error
Loading. Please wait.

Dear Lucian Dance Forever Tab

version 1
version 1

Acoustic

Whole song

2,353 views 1 this week
no commentswrite comment
1 2 3 4 5
2 more votes to show rating
add to favorites
launch autoscroll
font size
0
reset
how to read this tab
guitar tuner
Autoscroll
slow
fast
+/-
esc
set tempo
stop
Help us to improve Ultimate-Guitar.com Take our survey!
×
Author
Difficulty
Tuning
intermediate
D A D G B E
Hi! i tabbed this hearing Jason play in a video, but the video is dark and i couldn't 
a thing, so i decided to figure it
out by ear.
This is like, ACOUSTIC.

- The chords like "66x47x" would be only "666xxx" , if you want to simplify them or play 
eletric guitar.
- Tunning: DADGBe (droped D)
- The strumming is pretty easy to figure out, just listen to the song :)

DEAR LUCIAN, DANCE FOREVER
GO RADIO
Album: Welcome to Life (2008)


Intro: B5 (x244xx)

Verse (keep repeating):
e|-------------------------|
B|-----------------7-------|
G|-4---------------4-------|
D|-4---4---2---4---x---2---|
A|-2---4---2---4---6---2---|
D|-----4---2---4---6---2---|

Lets take it back to high school gym class
Written on her backpack
Jack loves Jill
Its hard to think about that now
we were so proud

And high school sweet hearts
Kissing in the front yard
Jill loves Jack
Cause Jack got a fast car now
But if he found out...


Pre-Chorus (let ring):
e|----------------|
B|----------------|
G|-3---4---1------|
D|-4---6---2------|
A|-4---6---2------|
D|-4---6---2------|

That if Jack drove an Escort this would be over, now...


Chorus:
e|--------------------|
B|-----7--------------|
G|-4---4--------------|
D|-4-------2---4------|
A|-2---6---2---4------|
D|-----6---2---4------|

And come on, come on, come on
Im telling everybody
Come on, get up, come on
And move your body
Bring on the romance
Dance till you cant dance


Intro: B5

Verse (keep repeating):
e|-------------------------|
B|-----------------7-------|
G|-4---------------4-------|
D|-4---4---2---4-------2---|
A|-2---4---2---4---6---2---|
D|-----4---2---4---6---2---|

Shes staring at his brand new hi-tops
Wishing that he'd just stop
Taking on the world
His head is gonna blow up now
Dont be let down

Cause Journey is on the tape deck,
Hat off, seat back
30 000 miles
That we'll never want to give back now
With the t-tops down...


Pre-Chorus (let ring):
e|----------------|
B|----------------|
G|-3---4---1------|
D|-4---6---2------|
A|-4---6---2------|
D|-4---6---2------|

And the wind in our hair its the best of our lives hands, down...


Chorus :
e|--------------------|
B|-----7--------------|
G|-4---4--------------|
D|-4-------2---4------|
A|-2---6---2---4------|
D|-----6---2---4------|

And come on, come on, come on
Im telling everybody
Come on, get up, come on
And move your body
Bring on the romance
Woah
And come on, come on, come on
Im telling everybody
Come on, get up, come on
And move your body
Bring on the romance
Dance till you cant dance


Solos Base:
e|--------------------|
B|------------7-------|
G|-4----------4-------|
D|-4---2--4-------2---|
A|-2---2--4---6---2---|
D|-----2--4---6---2---|


Chorus:
e|--------------------|
B|-----7--------------|
G|-4---4--------------|
D|-4-------2---4------|
A|-2---6---2---4------|
D|-----6---2---4------|

(soft)
And come on, come on, come on
(normal)
Come on, get up, come on
And move your body
Bring on the romance, Woah

And come on, come on, come on
Im telling everybody
Come on, get up, come on
And move your body
Bring on the romance
Dance till you cant dance

Dance till you cant dance
Dance till you cant dance
Dance till you cant dance
(soft)
Dance till you cant dance
Dance till you cant dance
Dance till you cant dance
                                      B5
Dance till you cant dance.
Suggest correction
Give kudos to tab author, rate the tab!
1 2 3 4 5
comments
print report bad tab
guest
You may want to rate the tab now too:
select rating
Wanna post a correction for this tab? Suggest correction