Oops, an error
Loading. Please wait.

Goodnight Moon Tab

version 1
version 1

Whole song

Interactive

6,888 views 12 this week
no commentswrite comment
1 2 3 4 5
excellent!
x 3
add to favorites
launch autoscroll
font size
0
reset
how to read this tab
guitar tuner
Autoscroll
slow
fast
+/-
esc
set tempo
stop
Help us to improve Ultimate-Guitar.com Take our survey!
×
This is my first tab but i didn't find one for transposing the piano part so the 
first half of this is basically transposition, then it's just chords. This is just 
how i like to play it and I hope it helps :)

Verse 1
    F
e |-1-----1-------1-|-------1-------1-|
B |-------1-------1-|-------1-------1-|
G |---2-------2-----|---2-------2-----|
D |-3---3---3---3---|-3---3---3---3---|
A |-----------------|-----------------|
E |-----------------|-----------------|

    C
e |-----------------|-----------------|
B |-1-----1-------1-|-------1-------1-|
G |-------0-------0-|-------0-------0-|
D |---2-------2-----|---2-------2-----|
A |-3---3---3---3---|-3---3---3---3---|
E |-----------------|-----------------|x2

Pre-chorus
    F                 G                 Am                G
e |-1---------------|-3---------------|-0-------0---3---|-3---------------|
B |-1-------1---3---|-0---1---3---5---|-1---3-----------|-0---1---3-------|
G |-2---3-----------|-0-0---0---0---0-|-2-2---2---2---2-|-0-0---0---------|
D |-3-3---3---3---3-|-0---------------|-2---------------|-0---------------|
A |-----------------|-2---------------|-----------------|-2---------------|
E |-----------------|-3---------------|-----------------|-3---------------|

Chorus
    C                 F                 Dm                G
e |-----------------|-------1-------1-|-------1-------1-|-------3-------3-|
B |-------1-------1-|-------1-------1-|-------3-------3-|-------0-------0-|
G |-------0-------0-|---2-------2-----|---2-------2-----|-----------------|
D |---2-------2-----|-3---3---3---3---|-0---0---0---0---|---0-------0-----|
A |-3---3---3---3---|-----------------|-----------------|-----------------|
E |-----------------|-----------------|-----------------|-3---3---3---3---|

    C                 F                 Dm                G
e |-----------------|-------1-------1-|-------1-------1-|-------3-------3-|
B |-------1-------1-|-------1-------1-|-------3-------3-|-------0-------0-|
G |-------0-------0-|---2-------2-----|---2-------2-----|-----------------|
D |---2-------2-----|-3---3---3---3---|-0---0---0---0---|---0-------0-----|
A |-3---3---3---3---|-----------------|-----------------|-----------------|
E |-----------------|-----------------|-----------------|-3---3---3---3---|

Then there's just 16th note chords changing every measure in the following order:

F C G G F C G G

Verse 2
    F
e |-------1-------1-|-------1-------1-|
B |-------1-------1-|-------1-------1-|
G |---2-------2-----|---2-------2-----|
D |-3---3---3---3---|-3---3---3---3---|
A |-----------------|-----------------|
E |-----------------|-----------------|

                         first time |
                                    v
    C                           |-----|
e |-----------------|-----------------|
B |-------1-------1-|-------1-------1-|
G |-------0-------0-|-------0-------0-|
D |---2-------2-----|---2-------2-----|
A |-3---3---3---3---|-3---3---3---3---|
E |-----------------|-----------------|x2

               second time  e |-8-7----|
                            B |-----10-|
                            G |--------|
                            D |--------|
                            A |--------|
                            E |--------|
Pre-chorus
        F             G                 Am                G
e |---8-------------|-3---------------|-0-------0---3---|-3---------------|
B |-8---------1---3-|-0---1---3---5---|-1---3-----------|-0---1---3---6---|
G |-------3---------|-0-0---0---0---0-|-2-2---2---2---2-|-0-0---0---0---0-|
D |-----3---3---3---|-0---------------|-2---------------|-0---------------|
A |-----------------|-2---------------|-----------------|-2---------------|
E |-----------------|-3---------------|-----------------|-3---------------|

Chorus
i like to play just chords again in this order:
play each 16 times

C F Dm G C F Dm G

then you can figure out your own strumming for the chords

F C G F C G

Bridge
              F                 C
And there you were, as I saw my Juliet
     G
Come graceful down the stairs
             F                C                     G
It's hard to miss the way her eyes light up the room, and steal the air
              F                 C              G
Just feel her lips locked on to every breath I take and breathe it in
               F
do you feel us falling?
              G
Cus I feel us falling

Chorus

So goodnight moon, and goodnight you
                       F
When you're all that I think about
           Dm
All that I dream about
             G
How'd I ever breathe without, 
            C
a goodnight kiss from goodnight you?
                          F
The kind of hope they all talk about
                       Dm
The kind of feeling we sing about
                       G
Sit in our bedroom and read aloud, 
                        F      C  G
like a passage from goodnight moon
             F      C  G
Oh! from goodnight moon

Outro
(I like to only play each chord once)
              F              C
And there you were, I saw my Juliet
     G
Come graceful down the stairs
             F                C                      G
It's hard to miss the way her eyes light up the room,

And steal the air


               F             \
Do you feel us falling       |
C                   G        |  repeat until it fades out
Cause I can feel us falling  /
Suggest correction
What's this?
You can suggest a correction to this tab. Community and Mods will review your correction and vote to approve or reject it.
comments
We did not receive enough feedback on this tab! Please rate:
print report bad tab
1 2 3 4 5
guest
You may want to rate the tab now too:
select rating
Please do not post tabs as comments. Select "correction" instead!