Oops, an error
Loading. Please wait.

House Of Hallways Tab

version 2
version 2

Whole song

809 views 1 this week
2 commentsread comments
1 2 3 4 5
please rate
add to favorites
launch autoscroll
font size
0
reset
how to read this tab
guitar tuner
Tab Pro tools
  • play this tab
  • loop segment
  • change instrument
  • show fretboard
  • metronome
×
Best way to learn
"House Of Hallways"
Autoscroll
slow
fast
+/-
esc
set tempo
stop
Contributor
----------------------------------------------------------------------------
                     "House Of Hallways" by Go Radio
----------------------------------------------------------------------------

Drop B Tuning guy's 

tab done by JaidenHubert

~ = let the chord ring

Chords used 
F#|------------------------3---3---3----------|
G#|----8---7---3---5---3---3---3---3----------|
E |--------------------0---0---0---2----------|
B |--------------------4-----------0----------|
F#|----7---5---2---3---5---2---3--------------|
B |------------------------0---0--------------|

intro
F#|--------------------------0----------------|
G#|---8---8-8-8--7/3-3/5--5---5--5------------|
E |------------------------4------------------|
B |-------------------------------------------|
F#|---7--7---7---5/2-2/3--3--3--3-------------|
B |-------------------------------------------|

F#|-------------------------------------------|
G#|---8---8-8-8--7/3-3/5----------------------|
E |-------------------------------------------|
B |-------------------------------------------|
F#|---7--7---7---5/2-2/3----------------------|
B |-------------------------------------------|

Verse

F#|--------------------------------|-----------|
G#|--8888888/777777/5555555555-----|---/7------|
E |--------------------------------|-----------| x4
B |--------------------------------|-----------|
F#|--7777777/555555/3333333333-----|---/5------|
B |--------------------------------|-----------|
                      fourth time through slide 

F#|---------------------------|----|--3333333333|
G#|--555555/777777/8888888888-|----|--3333333333|
E |---------------------------|-x4-|--0000000000|
B |---------------------------|----|------------|
F#|--333333/555555/7777777777-|----|--2222222223|
B |---------------------------|----|------------|

Chorus
F#|--333333--------333333-3-333333---------------|
G#|--333333-333333-333333-3-333333-333333-888888-|
E |---------000000-222222-2--------000000--------|
B |--222222-444444----------222222-444444--------|
F#|--333333-555555----------333333-555555-777777-|
B |----------------------------------------------|

F#|-------------------------------------------|
G#|--777777-555555-3333333333-7~--------------|
E |----------------0000000000-----------------|
B |----------------4444444444-----------------|
F#|--555555-333333-5555555555-5~--------------|
B |-------------------------------------------|
Chorus outro
F#|--------------------------0----------------|
G#|---8---8-8-8--7/3-3/5--5---5--5------------|
E |------------------------4------------------|
B |-------------------------------------------|
F#|---7--7---7---5/2-2/3--3--3--3-------------|
B |-------------------------------------------|

F#|-------------------------------------------|
G#|---8---8-8-8--7/3-3/5----------------------|
E |-------------------------------------------|
B |-------------------------------------------|
F#|---7--7---7---5/2-2/3----------------------|
B |-------------------------------------------|

Verse 2
F#|--------------------------------|-----------|
G#|--8888888/777777/5555555555-----|---/7------|
E |--------------------------------|-----------| x4
B |--------------------------------|-----------|
F#|--7777777/555555/3333333333-----|---/5------|
B |--------------------------------|-----------|
                      fourth time through slide 

F#|---------------------------|----|--3333333333|
G#|--555555/777777/8888888888-|----|--3333333333|
E |---------------------------|-x4-|--0000000000|
B |---------------------------|----|------------|
F#|--333333/555555/7777777777-|----|--2222222223|
B |---------------------------|----|------------|

Chorus
F#|--333333--------333333-3-333333---------------|
G#|--333333-333333-333333-3-333333-333333-888888-|
E |---------000000-222222-2--------000000--------|
B |--222222-444444----------222222-444444--------|
F#|--333333-555555----------333333-555555-777777-|
B |----------------------------------------------|

F#|-------------------------------------------|
G#|--777777-555555-3333333333-7~--------------|
E |----------------0000000000-----------------|
B |----------------4444444444-----------------|
F#|--555555-333333-5555555555-5~--------------|
B |-------------------------------------------|
Chorus outro
F#|--------------------------0----------------|
G#|---8---8-8-8--7/3-3/5--5---5--5------------|
E |------------------------4------------------|
B |-------------------------------------------|
F#|---7--7---7---5/2-2/3--3--3--3-------------|
B |-------------------------------------------|

F#|-------------------------------------------|
G#|---8---8-8-8--7/3-3/5----------------------|
E |-------------------------------------------|
B |-------------------------------------------|
F#|---7--7---7---5/2-2/3----------------------|
B |-------------------------------------------|


thats it hope you all enjoy
comments
We did not receive enough feedback on this tab! Please rate:
print report bad tab
1 2 3 4 5
2 comments total.
0 reply
jxcalero wrote on September 11 2015, 08:35 am

Lack of accuracy. The verse doesn't really match the tablature as I hear it in the song. I'd suggest giving it another listen.

0 reply
JaidenHubert wrote on October 3 2015, 11:55 pm

Jxcalero mate this is a live version they do in acoustic and its very close to how they played it

I want to post or [tab]
guest
You may want to rate the tab now too:
select rating
Please do not post tabs as comments. Select "correction" instead!