Oops, an error
Loading. Please wait.

Kill The Beast Tab

1,854 views 1 this week
no commentswrite comment
1 2 3 4 5
2 more votes to show rating
add to favorites
launch autoscroll
font size
0
reset
how to read this tab
guitar tuner
Autoscroll
slow
fast
+/-
esc
set tempo
stop
Help us to improve Ultimate-Guitar.com Take our survey!
×
Author
Difficulty
Tuning
novice
D A D G B E
Artist: Go Radio
Song: Kill The Beast
Album: Lucky Street
Drop D Tuning

Intro
e) ----------------------------------------------------------------|
B) ----------------------------------------------------------------|
G) ----------------------------------------------------------------|
D) 9-9-9-9-9-9-9-9-5-5-5-5-5-5-5-5-7-7-7-7-7-7-7-7-7-7-7-7-7-7-7-7-| 2x
A) 9-9-9-9-9-9-9-9-5-5-5-5-5-5-5-5-7-7-7-7-7-7-7-7-7-7-7-7-7-7-7-7-|
D) 9-9-9-9-9-9-9-9-5-5-5-5-5-5-5-5-7-7-7-7-7-7-7-7-7-7-7-7-7-7-7-7-|

Verse
e) ----------------------------------------------------------------------------------|
B) ----------------------------------------------------------------------------------|
G) ----------------------------------------------------------------------------------|
D) 9-9-------------------------------------------------------------------------7--7--|
A) 9-9----------------------------0000-0-0---0-0-0-0-------7-7-7-7---7-7-7-7---7--7--|
D) 9-9----------------------------0000-0-0---0-0-0-0-------7-7-7-7---7-7-7-7---7--7--|

e) ------------------------------------------------------------------------------------------------|
B) ------------------------------------------------------------------------------------------------|
G) ------------------------------------------------------------------------------------------------|
D) 9-9-9-9---9-9-9-9-------5-5-5-5---5-5-5-5-------0-0-0-0---0-0-0-0-------7-7-7-7---7-7-7-7-------|
A) 9-9-9-9---9-9-9-9-------5-5-5-5---5-5-5-5-------0-0-0-0---0-0-0-0-------7-7-7-7---7-7-7-7-------|
D) 9-9-9-9---9-9-9-9-------5-5-5-5---5-5-5-5-------0-0-0-0---0-0-0-0-------7-7-7-7---7-7-7-7-------|

Pre-Chorus
e) ----------------------------------------------------------------|
B) ----------------------------------------------------------------|
G) ----------------------------------------------------------------|
D) ----------------------------------------------------------------|
A) 5-5-5-5-5-5-5-5-5-5-5-5-5-5-5-5-0-0-0-0-0-0-0-0-0-0-0-0-0-0-0-0-|
D) 5-5-5-5-5-5-5-5-5-5-5-5-5-5-5-5-0-0-0-0-0-0-0-0-0-0-0-0-0-0-0-0-|

e) ----------------------------------------------------------------|
B) ----------------------------------------------------------------|
G) ----------------------------------------------------------------|
D) ----------------------------------------------------------------|
A) 7-7-7-7-7-7-7-7-7-7-7-7-7-7-7-7-7-7-7-7-7-7-7-7-7-7-7-7-7-7-7-7-|
D) 7-7-7-7-7-7-7-7-7-7-7-7-7-7-7-7-7-7-7-7-7-7-7-7-7-7-7-7-7-7-7-7-|

Chorus
e) ----------------------------------------------------------------|
B) ----------------------------------------------------------------|
G) ----------------------------------------------------------------|
D) 5-5-5-5-5-5-5-5-0-0-0-0-0-0-0-0-7-7-7-7-7-7-7-7-9-9-9-9-9-9-9-9-|
A) 5-5-5-5-5-5-5-5-0-0-0-0-0-0-0-0-7-7-7-7-7-7-7-7-9-9-9-9-9-9-9-9-|
D) 5-5-5-5-5-5-5-5-0-0-0-0-0-0-0-0-7-7-7-7-7-7-7-7-9-9-9-9-9-9-9-9-|

e) ----------------------------------------------------------------|
B) ----------------------------------------------------------------|
G) ----------------------------------------------------------------|
D) 5-5-5-5-5-5-5-5-0-0-0-0-0-0-0-0-7-7-7-7-7-7-7-7-7-7-7-7-7-7-7-7-|
A) 5-5-5-5-5-5-5-5-0-0-0-0-0-0-0-0-7-7-7-7-7-7-7-7-7-7-7-7-7-7-7-7-|
D) 5-5-5-5-5-5-5-5-0-0-0-0-0-0-0-0-7-7-7-7-7-7-7-7-7-7-7-7-7-7-7-7-|

e) ----------------------------------------------------------------|
B) ----------------------------------------------------------------|
G) ----------------------------------------------------------------|
D) 5-5-5-5-5-5-5-5-0-0-0-0-0-0-0-0-7-7-7-7-7-7-7-7-9-9-9-9-9-9-9-9-|
A) 5-5-5-5-5-5-5-5-0-0-0-0-0-0-0-0-7-7-7-7-7-7-7-7-9-9-9-9-9-9-9-9-|
D) 5-5-5-5-5-5-5-5-0-0-0-0-0-0-0-0-7-7-7-7-7-7-7-7-9-9-9-9-9-9-9-9-|

e) ---------------------------------------------------------------|
B) ---------------------------------------------------------------|
G) ---------------------------------------------------------------|
D) 5-5-5-5-5-5-5-5-0-0-0-0-0-0-0-0-7-7-7-7-7-7-7-7-7-----9-----7--|
A) 5-5-5-5-5-5-5-5-0-0-0-0-0-0-0-0-7-7-7-7-7-7-7-7-7-----9-----7--|
D) 5-5-5-5-5-5-5-5-0-0-0-0-0-0-0-0-7-7-7-7-7-7-7-7-7-----9-----7--|

Pre-Verse
e) ------------------------------------------------|
B) ------------------------------------------------|
G) ------------------------------------------------|
D) 5--5--5--5--0--0--0--0--9--9--9--9--9--9--9--9--|
A) 5--5--5--5--0--0--0--0--9--9--9--9--9--9--9--9--|
D) 5--5--5--5--0--0--0--0--9--9--9--9--9--9--9--9--|

e) ------------------------------------------------|
B) ------------------------------------------------|
G) ------------------------------------------------|
D) 5--5--5--5--9--9--9--9--7--7--7--7--7--7--7--7--|
A) 5--5--5--5--9--9--9--9--7--7--7--7--7--7--7--7--|
D) 5--5--5--5--9--9--9--9--7--7--7--7--7--7--7--7--|

Verse II
e) ---------------------|
B) ---------------------|
G) ---------------------| 
D) 9--------------------| 2x
A) 9--------------------|
D) 9--------11----12----|

e) ----------------------------------------|
B) ----------------------------------------|
G) ----------------------------------------|
D) 7--------------------7---------------7--|
A) 7--------------------7-----------7-7-7--|
D) 7--------------------7-----------7-7-7--|

Pre-Chorus II
e) ---------------------------------------------|
B) ---------------------------------------------|
G) ---------------------------------------------|
D) 5--5------0--0------7--7------9--9-----------|
A) 5--5--5-5-0--0--0-0-7--7--7-7-9--9-----------|
D) 5--5--5-5-0--0--0-0-7--7--7-7-9--9-----------|

e) ------------------------------------------------------|
B) ------------------------------------------------------|
G) ------------------------------------------------------|
D) 5--5------0--0------7--7------2--2--------------0--2--|
A) 5--5--5-5-0--0--0-0-7--7--7-7-2--2--2-2---------0--2--|
D) 5--5--5-5-0--0--0-0-7--7--7-7-2--2--2-2-2-4-2-0-0--2--|

Repeat Chorus

Bridge I
e) -----------------------------------|
B) -----------------------------------|
G) -----------------------------------|
D) 5--------------9--7----------------| 2x
A) 5--------------9--7----------------|
D) 5--------------9--7----------------|

Bridge II
e) ------------------------------------------------|
B) ------3-----------3----------3------------3-----|
G) ---2-----2-----2-----2-----2-----2-----2----2---|
D) 0-----------------------------------------------|
A) ------------0-----------2-----------4-----------|
D) ------------------------------------------------|

e) -----------------------------------------------|
B) ------3-----------3-----------3----------------|
G) ---2-----2-----2-----2-----2-----2-------------|
D) 0----------------------------------------------|
A) ------------0-----------2-----------4----------|
D) -----------------------------------------------|

Repeat Chorus

Repeat Bridge I

END

That's it, Hope you enjoy. Please comment and rate!
Suggest correction
Give kudos to tab author, rate the tab!
1 2 3 4 5
comments
print report bad tab
guest
You may want to rate the tab now too:
select rating
Wanna post a correction for this tab? Suggest correction