Oops, an error
Loading. Please wait.

Ready Or Not Tab

2,844 views 1 this week
no commentswrite comment
1 2 3 4 5
please rate
add to favorites
launch autoscroll
font size
0
reset
how to read this tab
guitar tuner
Tab Pro tools
  • play this tab
  • loop segment
  • change instrument
  • show fretboard
  • metronome
×
Best way to learn
"Ready Or Not"
Autoscroll
slow
fast
+/-
esc
set tempo
stop
Contributor
First tab guys! It's most of the song, I'll be sure to update when I get to it.

Song: Ready Or Not
Band: Go Radio
Tabbed: 6/1/09
Tabber: Gerard Cabarse (Aeroblast)
Tuning: DADGBE (Drop D)

Update: Fixed the pre-chorus (the whole thing was a whole step down) and add extra 
chord in the chorus. Enjoy!

Verse 1

 (I must assume you’re looking at me…So we’ll sing til we fly out of here)
e|---------------------------------------------------------------------------|
B|---------------------------------------------------------------------------|
G|-7---------9--------12-----------------------------------------------------| (2x)
D|-x-(x8)----x—(x8)----x(x16)------------------------------------------------|
A|-5---------7--------10-----------------------------------------------------|
E|---------------------------------------------------------------------------|

Pre-Chorus
 
(Maybe, then we’ll come back down. Maybe, then we’ll come back down)
e|---------------------------------------------------------------------------|
B|---------------------------------------------------------------------------|
G|-9------12-------9-------14------------------------------------------------|
D|-x-(4x)--x—(4x)--x-(4x)—-x---(let ring)------------------------------------|
A|-7------10-------7-------12------------------------------------------------|
E|---------------------------------------------------------------------------|

Verse 2

 (Can we believe in things we can’t see?... We’ll need a martyr that won’t hesitate)
e|---------------------------------------------------------------------------|
B|---------------------------------------------------------------------------|
G|-7---------9--------12-----------------------------------------------------| (2x)
D|-x-(x8)----x—(x8)----x(x16)------------------------------------------------|
A|-5---------7--------10-----------------------------------------------------|
E|---------------------------------------------------------------------------|

Pre-Chorus

(Maybe, then we’ll come back down. Maybe, then we’ll come back down)
e|---------------------------------------------------------------------------|
B|---------------------------------------------------------------------------|
G|-9------12-------9-------14------------------------------------------------|
D|-x-(4x)--x—(4x)--x-(4x)—-x---(let ring)------------------------------------|
A|-7------10-------7-------12------------------------------------------------|
E|---------------------------------------------------------------------------|

Chorus
(And I was hoping things were better…This is where we are, cut out for shooting stars)
e|-----------------------------------------------------------------------------|
B|-----------------------------------------------------------------------------|
G|-----------------------------------------------------------------------------|
D|0------2------4-5------------------------------------------------------------| (2x)
A|0-(8x)-2—(7x)-5-5—(16x)------------------------------------------------------|
E|0------2------4-5------------------------------------------------------------|

Post Chorus 

e|---------------------------------------------------------------------------|
B|---------------------------------------------------------------------------|
G|-7---------9--------12-----------------------------------------------------| 
D|-x-(x8)----x—(x8)----x(x16)------------------------------------------------|
A|-5---------7--------10-----------------------------------------------------|
E|---------------------------------------------------------------------------|


Verse Two

 (And I miss the way we lived in our dreams… seemed to give us the best of it)
e|---------------------------------------------------------------------------|
B|---------------------------------------------------------------------------|
G|-7---------9--------12-----------------------------------------------------| (2x)
D|-x-(x8)----x—(x8)----x(x16)------------------------------------------------|
A|-5---------7--------10-----------------------------------------------------|
E|---------------------------------------------------------------------------|

Pre-Chorus

(Maybe, then we’ll come back down. Maybe, then we’ll come back down)
e|---------------------------------------------------------------------------|
B|---------------------------------------------------------------------------|
G|-9-------12-------9-------14-----------------------------------------------|
D|-x-(4x)---x—(4x)--x-(4x)—-x---(let ring)-----------------------------------|
A|-7-------10-------7-------12-----------------------------------------------|
E|---------------------------------------------------------------------------|

Chorus

(And I was hoping things were better…This is where we are, cut out for shooting stars)
e|-----------------------------------------------------------------------------|
B|-----------------------------------------------------------------------------|
G|-----------------------------------------------------------------------------|
D|0------2------4-5------------------------------------------------------------| (2x)
A|0-(8x)-2—(7x)-5-5—(16x)------------------------------------------------------|
E|0------2------4-5------------------------------------------------------------|

Solo

e|---------------------------------------------------------------------------|
B|---------------------------------------------------------------------------|
G|-9-9/11\9-7-9-9/11\9-7-9-11-9-11-12-11-9-7-9-11-9-7-4-7-9-11-9-7-4---------|
D|-x-x-x--x-x-x-x----x-x-x-x--x-x--x--x--x-x-x-x--x-x-x-x-x-x--x-x-x---------| (2x)
A|-7-7/9-\7-5-7-7/9-\7-5-7-9--7-9--10-9--7-5-7-9--7-5-2-5-7-9--7-5-2---------|
E|---------------------------------------------------------------------------|

Chorus (After the solo, it’s a little different. Easier though.)

(And I was hoping things were better…This is where we are, cut out for shooting stars)
E|---------------------------------------------------------------------------|
B|---------------------------------------------------------------------------|
G|--------------------------12-----------------------------------------------|
D|0------------2------------x—(16x)------------------------------------------|
A|0—(let ring)-2-(let ring)-10-----------------------------------------------|
E|0------------2-------------------------------------------------------------|

Chorus (Back to normal)

(And I was hoping things were better…This is where we are, cut out for shooting stars)
e|-----------------------------------------------------------------------------|
B|-----------------------------------------------------------------------------|
G|-----------------------------------------------------------------------------|
D|0------2------4-5------------------------------------------------------------| (2x)
A|0-(8x)-2—(7x)-5-5—(16x)------------------------------------------------------|
E|0------2------4-5------------------------------------------------------------|

Solo (Here, Jason plays something similar to the first solo. Just play around on the D maj scale)

End on:

e|2--------------------------------------------------------------------------|
B|3--------------------------------------------------------------------------|
G|2--------------------------------------------------------------------------|
D|0----(let ring)------------------------------------------------------------| (2x)
A|0-------------------—------------------------------------------------------|
E|0--------------------------------------------------------------------------|
Thanks guys! I think I did a pretty good job of it. Comments and constructive 
criticism are welcome!

| /  slide up
| \  slide down
| h  hammer-on
| p  pull-off
| ~  vibrato
| +  harmonic
| x  Mute note
comments
We did not receive enough feedback on this tab! Please rate:
print report bad tab
1 2 3 4 5
I want to post or [tab]
guest
You may want to rate the tab now too:
select rating
Please do not post tabs as comments. Select "correction" instead!