Oops, an error
Loading. Please wait.

Rolling In The Deep Tab

version 1
version 1

Whole song

Interactive

38,436 views 27 this week
1 commentread comment
1 2 3 4 5
excellent!
x 8
add to favorites
launch autoscroll
font size
0
reset
how to read this tab
guitar tuner
Tab Pro tools
  • play this tab
  • loop segment
  • change instrument
  • show fretboard
  • metronome
×
Best way to learn
"Rolling In The Deep"
Autoscroll
slow
fast
+/-
esc
set tempo
stop
Difficulty
novice
Artist: Go Radio
Song: Rolling In The Deep
Album: Lucky Street Deluxe Edition
Tuning: Standard

It may not all be 100% accurate it is learnt entirely by Ear.
I am only missing the riff in the background during the Bridge at 2:32

Intro
Listen to the song for the Timing
From 0:00 to 0:06 Just stick to the First Chord 
e|--------------------------|
B|--------------------------|
G|--------------------------|
D|----7----2----5----3------|
A|----7----2----5----3------|
E|----5----0----3----1------|
      PM   PM   PM   PM  

Pre Chorus
(Rhythm)
e|-------------------------------------|
B|-------------------------------------|
G|-------------------------------------|
D|33333333-55555555-22222222-22222222--|
A|33333333-55555555-22222222-22222222--|
E|11111111-33333333-00000000-00000000--|
PM........ ........ ........ ........

e|-------------------------------------|
B|-------------------------------------|
G|-------------------------------------|
D|33333333-55555555-22222222-22222222--|
A|33333333-55555555-22222222-22222222--|
E|11111111-33333333-00000000-00000000--|
PM........ ........ ........

(Lead)
e|-------------------|-----------------|-------------------|-------------------|
B|----------55533333-|--------88855555-|----------55533333-|----------55588888-|
G|--54455445---------|-54455445--------|--54455445---------|--54455445---------|
D|-------------------|-----------------|-------------------|-------------------|
A|-------------------|-----------------|-------------------|-------------------|
E|-------------------|-----------------|-------------------|-------------------|

Chorus
(Rhythm)
e|----------------------------------------------------------------------------|
B|----------------------------------------------------------------------------|
G|----------------------------------------------------------------------------|
D|--77777777-55555555-33333333-33333333-77777777-55555555-33333333-33333333-7-|
A|--77777777-55555555-33333333-33333333-77777777-55555555-33333333-33333333-7-|
E|--55555555-33333333-11111111-11111111-55555555-33333333-11111111-11111111-5-|

(Lead)
e|--5-5-5-5-7-7-8-7-|5-5-5-5-8-8-7-7-|5-5-5-5-7-7-8-7-|5-5-5-5-8-8-7-7-5--|
B|---5-5-5-5-5-5-5-5|-5-5-5-5-5-5-5-5|-5-5-5-5-5-5-5-5|-5-5-5-5-5-5-5-5---|
G|------------------|----------------|----------------|-------------------|
D|------------------|----------------|----------------|-------------------|
A|------------------|----------------|----------------|-------------------|
E|------------------|----------------|----------------|-------------------|










Verse
(Rhythm)
(1:30-1:50ish)
e|-------------------------------------|
B|-------------------------------------|
G|-------------------------------------|
D|33333333-55555555-22222222-22222222--|
A|33333333-55555555-22222222-22222222--|
E|11111111-33333333-00000000-00000000--|
PM........ ........ ........ ........

e|-------------------------------------|
B|-------------------------------------|
G|-------------------------------------|
D|33333333-55555555-22222222-22222222--|
A|33333333-55555555-22222222-22222222--|
E|11111111-33333333-00000000-00000000--|
PM........ ........ ........


Lead
(1:20-130)
e|----------|--------|-----------------|
B|----5---5-|--5---5-|--3---3---3---3--|
G|---5-5-5-5|-5-5-5-5|-5-5-5-5-5-5-5-5-|
D|--7---7---|5---5---|3---3---3---3----|
A|----------|--------|-----------------|
E|----------|--------|-----------------|

(1:30-1:40)
I am not 100% Sure about this bit but Listen for the Pattern 
e|----------------|
B|----------------|
G|--12/1414141414-|
D|----------------|X6
A|--10/1212121212-|
E|----------------|

(1:40-1:50)
e|------------------|
B|------------------|
G|--14~-16~-17~-21~-|
D|------------------|
A|------------------|
E|------------------|

Chorus
(Rhythm)
REPEAT TWICE
e|--------------------------------------------------------------------------|
B|--------------------------------------------------------------------------|
G|--------------------------------------------------------------------------|
D|--77777777-55555555-33333333-33333333-77777777-55555555-33333333-33333333-|
A|--77777777-55555555-33333333-33333333-77777777-55555555-33333333-33333333-|
E|--55555555-33333333-11111111-11111111-55555555-33333333-11111111-11111111-|

(Lead)
e|--5-5-5-5-7-7-8-7-|5-5-5-5-8-8-7-7-|5-5-5-5-7-7-8-7-|5-5-5-5-8-8-7-7-5--|
B|---5-5-5-5-5-5-5-5|-5-5-5-5-5-5-5-5|-5-5-5-5-5-5-5-5|-5-5-5-5-5-5-5-5---|
G|------------------|----------------|----------------|-------------------|
D|------------------|----------------|----------------|-------------------|
A|------------------|----------------|----------------|-------------------|
E|------------------|----------------|----------------|-------------------|





SECOND TIME AROUND
e|-1717171717171717-15151515151515-|-171717171717-19-1515151515151515-|
B|---------------------------------|----------------------------------|
G|---------------------------------|----------------------------------|
D|---------------------------------|----------------------------------|
A|---------------------------------|----------------------------------|
E|---------------------------------|----------------------------------|

e|-1717171717171717-1515151515151515-1313131313131313-1212121212121212----------|
B|------------------------------------------------------------------------------|
G|------------------------------------------------------------------------------|
D|------------------------------------------------------------------------------|
A|------------------------------------------------------------------------------|
E|------------------------------------------------------------------------------|


Bridge
(2:40-2:58)
(Rhythm)
e|--------------------------------------------------------------------------|
B|--------------------------------------------------------------------------|
G|--------------------------------------------------------------------------|
D|--77777777-55555555-33333333-33333333-77777777-55555555-33333333-33333555-|
A|--77777777-55555555-33333333-33333333-77777777-55555555-33333333-33333555-|
E|--55555555-33333333-11111111-11111111-55555555-33333333-11111111-11111333-|
PM  ........ ........ ........ ........ ........ ........ ........

FINAL CHORUS
Move everything up ONE fret and list to the song for the Rhythm Changes 
comments
print report bad tab
1 comment total.
0 reply
planet13man wrote on January 20 2012, 12:09 am

AHHH THANK YOU FINALLY ONE ACCURATE :P hahahahaha

I want to post or [tab]
guest
You may want to rate the tab now too:
select rating
Please do not post tabs as comments. Select "correction" instead!