Oops, an error
Loading. Please wait.

Singing With The King Tab

4,140 views 1 this week
no commentswrite comment
1 2 3 4 5
please rate
add to favorites
launch autoscroll
font size
0
reset
how to read this tab
guitar tuner
Autoscroll
slow
fast
+/-
esc
set tempo
stop
Help us to improve Ultimate-Guitar.com Take our survey!
×
Difficulty
Tuning
intermediate
C G C F A D
Email:

Tuning:Drop c
                              intro
e|----------------------------------------------------------------------------------|
B|----------------------------------------------------------------------------------|
G|---------------5------------------------------------------------------------------|
D|--3----------- 5-x6----- 5--------------------------------------------------------|
A|--3----------- 3---------5--------------------------------------------------------|
E|--3--x16---------------- 5--x6----------------------------------------------------|

                  Verse 1 You can figure the strumming out
e|-------------------------------------------------------------------------------|
B|-------------------------------------------------------------------------------|
G|--5----------------------------------------------------------------------------|
D|--5----------3---------5------5------------------------------------------------|
A|--3----------3---------5------5------------------------------------------------|
E|--  ---------3---------3------5------------------------------------------------|

e|--------------------------|
B|--------------------------|
G|---------------5----------|
D|--7------3-----5-------5--| Palm muted
A|--7------3-----3-------5--|
E|--7------3-------------5--|
                           Chorus
e|---------------------------------------------------------|
B|---------------------------------------------------------|
G|----------5------------------------------5---------------|
D|-3------- 5------5-----------3---------- 5--------5------|
A|-3------- 3-x6-- 5-----------3-----------3--x6----5------|
E|-3-x16---------- 5--x6-------3--x16---------------5--x6--|

e|---------------------------------------------------------------------|
B|----------------------------------------------------------------  ---|
G|------------------------------------------------------------- -------|
D|-7---------3---------  5---------------------------------------------| [x2]
A|-7-------- 3----------5----------------------------------------------|
E|-7-x6------3---x6----5-x16-------------------------------------------|

             Pre verse
e|-----------------------------------------------------------------------------|
B|-----------------------------------------------------------------------------|
G|--4/-5--5-----4/--5-5-----7/--9----7--7/--5---4H-5H-4H-----------------------|
D|---------------------------------------------------------------5P-0----------|
A|----------------------------------------------------------------------5------|
E|-----------------------------------------------------------------------------|

e|--------------------------------------------------------------------------8------|
B|---------------------------------------------------------------------------------|
G|--4/-5--5-----4/--5-5-----7/--9----7--7/--5---4H-5H-4H---------------------------|
D|---------------------------------------------------------------5-----------------|
A|----------------------------------------------------------------------5----------|
E|---------------------------------------------------------------------------------|

                 Verse 2
figure out the patterns
e|--------------------------|
B|--------------------------|
G|---------------5----------|
D|--7------3-----5-------5--| [x2]Palm muted
A|--7------3-----3-------5--|
E|--7------3-------------5--|

e|-------------|
B|-------------|
G|-------------| sustained [x2]
D|-7----3---5--|
A|-7----3---5--|
E|-7----3---5--|


                           Chorus
e|---------------------------------------------------------|
B|---------------------------------------------------------|
G|----------5------------------------------5---------------|
D|-3------- 5------5-----------3---------- 5--------5------|
A|-3------- 3-x6-- 5-----------3-----------3--x6----5------|
E|-3-x16---------- 5--x6-------3--x16---------------5--x6--|

e|---------------------------------------------------------------------|
B|----------------------------------------------------------------  ---|
G|-------------------------------------------------------------- ------|
D|-7---------3---------5-----------------------------------------------| [x2]
A|-7-------- 3---------5-----------------------------------------------|
E|-7-x6------3---x6----5-x16-------------------------------------------|



                Bridge 2
e|-----------------------------------------------------------------------------|
B|-----------------------------------------------------------------------------|
G|-----------------------------------------------------------------------------| [x4]
D|-3----8----5-----------------------------------------------------------------|
A|-3----8----5-----------------------------------------------------------------|
E|-3----8----5-----------------------------------------------------------------|


************************************

| /   slide up
| \   slide down
| h   hammer-on
| p   pull-off
| ~   vibrato
| +   harmonic
| x   Mute note
| b   Bend
| pb  Pre-bend
| br  Bend release
| pbr Pre-bend release
| brb Bend release bend
comments
We did not receive enough feedback on this tab! Please rate:
print report bad tab
1 2 3 4 5
I want to post or [tab]
guest
You may want to rate the tab now too:
select rating
Please do not post tabs as comments. Select "correction" instead!