Oops, an error
Loading. Please wait.

Swear It Like You Mean It Tab

2,284 views 1 this week
no commentswrite comment
1 2 3 4 5
please rate
add to favorites
launch autoscroll
font size
0
reset
how to read this tab
guitar tuner
Autoscroll
slow
fast
+/-
esc
set tempo
stop
Help us to improve Ultimate-Guitar.com Take our survey!
×
Author
Difficulty
Tuning
novice
D A D G B E
Artist: Go Radio
Song: Swear It Like You Mean It
Album: Lucky Street

Intro (Piano part tabbed for guitar)
e) -------------------------------|
B) 8---8-5------------8---5-------|
G) --5-------7---5--5---5---7-5-7-|
D) -------------------------------| 3x
A) -------------------------------|
D) -------------------------------|

e) -------------------------------|
B) 8---8-5------------------------|
G) --5-------7---5----------------|
D) -------------------------------|
A) -------------------------------|
D) -------------------------------|

Guitar Part (When vocals start)
e) ----3------3------3------3-|
B) --5------5------5------5---|
G) 5------5------5------5-----|
D) ---------------------------| 4x
A) ---------------------------|
D) ---------------------------|

e) ----8------8------8------8------7------7------7------7--|
B) --5------5------5------5------5------5------5------5----|
G) 5------5------5------5------5------5------5------5------|
D) --------------------------------------------------------|
A) --------------------------------------------------------|
D) --------------------------------------------------------|

e) ----8------8------8------8------3------3------3------3--|
B) --5------5------5------5------5------5------5------5----|
G) 5------5------5------5------5------5------5------5------|
D) --------------------------------------------------------|
A) --------------------------------------------------------|
D) --------------------------------------------------------|

Pre-Chorus (Palm muted)
e) 7---7---7---7---7---7---7---7---8---8---8---8---10---10---10---10---|
B) --8---8---8---8---8---8---8---8---8---8---8---8----8----8----8----8-|
G) --------------------------------------------------------------------|
D) --------------------------------------------------------------------|
A) --------------------------------------------------------------------|
D) --------------------------------------------------------------------|

e) 7---7---7---7---7---7---7---7---8---8---8---8---8-------------------|
B) --8---8---8---8---8---8---8---8---8---8---8---8---------------------|
G) --------------------------------------------------------------------|
D) --------------------------------------------------------------------|
A) --------------------------------------------------------------------|
D) --------------------------------------------------------------------|

Chorus
e) ----------------------------------------------------------------|
B) ----------------------------------------------------------------|
G) 5-5-5-5-5-5-5-5-5-5-5-5-5-5-5-5---------------------------------|
D) 5-5-5-5-5-5-5-5-5-5-5-5-5-5-5-5-5-5-5-5-5-5-5-5-5-5-5-5-5-5-5-5-|
A) 3-3-3-3-3-3-3-3-3-3-3-3-3-3-3-3-5-5-5-5-5-5-5-5-5-5-5-5-5-5-5-5-|
D) --------------------------------5-5-5-5-5-5-5-5-5-5-5-5-5-5-5-5-|

e) ----------------------------------------------------------------|
B) ----------------------------------------------------------------|
G) ----------------------------------------------------------------|
D) 7-7-7-7-7-7-7-7-7-7-7-7-7-7-7-7-3-3-3-3-3-3-3-3-3-3-3-3-3-3-3-3-| 2x
A) 7-7-7-7-7-7-7-7-7-7-7-7-7-7-7-7-3-3-3-3-3-3-3-3-3-3-3-3-3-3-3-3-|
D) 7-7-7-7-7-7-7-7-7-7-7-7-7-7-7-7-3-3-3-3-3-3-3-3-3-3-3-3-3-3-3-3-|

Verse
e) --------------------------------------------------|
B) --------------------------------------------------|
G) 5--5--5--5--5--5--5-5--5--------------------------|
D) 5--5--5--5--5--5--5-5--5-5--5--5--5--5--5--5-5--5-|
A) 3--3--3--3--3--3--3-3--3-5--5--5--5--5--5--5-5--5-|
D) -------------------------5--5--5--5--5--5--5-5--5-|

e) --------------------------------------------------|
B) --------------------------------------------------|
G) --------------------------------------------------|
D) 7--7--7--7--7--7--7-7--7-3--3--3--3--3--3--3-3--3-|
A) 7--7--7--7--7--7--7-7--7-3--3--3--3--3--3--3-3--3-|
D) 7--7--7--7--7--7--7-7--7-3--3--3--3--3--3--3-3--3-|

(Palm muted)
e) 8-8-7-7-5-5-----5-5-------------|
B) ------------8-8-----8-8-5-5-----|
G) ----------------------------7-7-|
D) --------------------------------| 2x
A) --------------------------------|
D) --------------------------------|

Pre-Chorus
e) ------------------------------------|
B) ------------------------------------|
G) ------------------------------------|
D) 0--------2--------3--------5--------|
A) 0--------2--------3--------5--------|
D) 0--------2--------3--------5--------|

Repeat Chorus

Repeat Intro Piano Part

Build-Up (Palm muted)
e) ------------------------------------------------|
B) ------------------------------------------------|
G) 2--2--2--2--2--2--2--2--4--4--4--4--4--4--4--4--|
D) 2--2--2--2--2--2--2--2--4--4--4--4--4--4--4--4--|
A) 0--0--0--0--0--0--0--0--2--2--2--2--2--2--2--2--|
D) ------------------------------------------------|

e) ------------------------------------------------|
B) ------------------------------------------------|
G) 5--5--5--5--5--5--5--5--------------------------|
D) 5--5--5--5--5--5--5--5--3--3--3--3--3--3--3--3--|
A) 3--3--3--3--3--3--3--3--3--3--3--3--3--3--3--3--|
D) ------------------------3--3--3--3--3--3--3--3--|

Pre-Chorus
e) ------------------------------------------------|
B) ------------------------------------------------|
G) 5--5--5--5--5--5--5--5--------------------------|
D) 5--5--5--5--5--5--5--5--5--5--5--5--5--5--5--5--|
A) 3--3--3--3--3--3--3--3--5--5--5--5--5--5--5--5--|
D) ------------------------5--5--5--5--5--5--5--5--|

e) ------------------------------------------------|
B) ------------------------------------------------|
G) ------------------------------------------------|
D) 7--7--7--7--7--7--7--7--3--3--3--3--3--3--3--3--|
A) 7--7--7--7--7--7--7--7--3--3--3--3--3--3--3--3--|
D) 7--7--7--7--7--7--7--7--3--3--3--3--3--3--3--3--|

Final Chorus
e) ----------------------------------------------------------------|
B) ----------------------------------------------------------------|
G) 5-5-5-5-5-5-5-5-5-5-5-5-5-5-5-5---------------------------------|
D) 5-5-5-5-5-5-5-5-5-5-5-5-5-5-5-5-5-5-5-5-5-5-5-5-5-5-5-5-5-5-5-5-|
A) 3-3-3-3-3-3-3-3-3-3-3-3-3-3-3-3-5-5-5-5-5-5-5-5-5-5-5-5-5-5-5-5-|
D) --------------------------------5-5-5-5-5-5-5-5-5-5-5-5-5-5-5-5-|

e) ------------------------------------------------------------------|
B) ------------------------------------------------------------------|
G) ------------------------------------------------------------------|
D) 7-7-7-7-7-7-7-7-7-7-7-7-7-7-7-7-3-3--3-3--3-3--3-3--3--3----------|
A) 7-7-7-7-7-7-7-7-7-7-7-7-7-7-7-7-3-3--3-3--3-3--3-3--3--3----------|
D) 7-7-7-7-7-7-7-7-7-7-7-7-7-7-7-7-3-3--3-3--3-3--3-3--3--3----------|

e) ----------------------------------------------------------------|
B) ----------------------------------------------------------------|
G) 5--5---5--5-----------------------------------------------------|
D) 5--5---5--5---------------------5--5---5--5---------------------|
A) 3--3---3--3---------------------5--5---5--5---------------------|
D) --------------------------------5--5---5--5---------------------|

e) ----------------------------------------|
B) ----------------------------------------|
G) ----------------------------------------|
D) 7--7---7--7---------------------3-3-3-3-|
A) 7--7---7--7---------------------3-3-3-3-|
D) 7--7---7--7---------------------3-3-3-3-|

That's about it. It's a pretty simple song.
Please comment and rate!
Suggest correction
What's this?
You can suggest a correction to this tab. Community and Mods will review your correction and vote to approve or reject it.
comments
We did not receive enough feedback on this tab! Please rate:
print report bad tab
1 2 3 4 5
guest
You may want to rate the tab now too:
select rating
Please do not post tabs as comments. Select "correction" instead!