Oops, an error
Loading. Please wait.

That California Song Tab

1,593 views 1 this week
no commentswrite comment
1 2 3 4 5
please rate
add to favorites
launch autoscroll
font size
0
reset
how to read this tab
guitar tuner
Autoscroll
slow
fast
+/-
esc
set tempo
stop
Help us to improve Ultimate-Guitar.com Take our survey!
×
Difficulty
Tuning
intermediate
D A D G B E
Tabbed by: AJ Moran
E-mail [ziggy_fries22@live.com]


============================================================================



Guitar 1
[Intro]
e-----------------------------------------------|
B-----------------------------/11-/8-6----------|
G--10h12p10\8-8h10p8\7-7h7-p7----------7h8-8/10-|
D-----------------------------------------------|
A-----------------------------------------------|
D-----------------------------------------------|

e-----------------------------------------------|
B-----------------------------/11-8-/13---------|
G--10h12p10\8-8h10p8\7-7h7-p7-------------------|
D-----------------------------------------------|
A-----------------------------------------------|
D-----------------------------------------------|

e-----------------------------------------------|
B-----------------------------/11-/8-6----------|
G--10h12p10\8-8h10p8\7-7h7-p7----------7h8-8/10-|
D-----------------------------------------------|
A-----------------------------------------------|
D-----------------------------------------------|

e-----------------------------------------------|
B-----------------------------------------------|
G--10h12p10\8-8h10p8\7-7h7-p7--5-h7-------------|
D-----------------------------------------------|
A-----------------------------------------------|
D-----------------------------------------------|

[verse 1]
Do this part with alternate picking on each note
4X
e-----------------------------------------------|
B-----------------------------------------------|
G--8~--10~--13~---------------------------------|
D-----------------------------------------------|
A-----------------------------------------------|
D-----------------------------------------------|

[Chorus]
2X
e---------------------------------------------------|
B--------------------/11-8--------------------/11-8-|
G--12--12-10h12-8-10--------12--12-10h12-8-10-------|
D---------------------------------------------------|
A---------------------------------------------------|
D---------------------------------------------------|

e---------------------------------------------------|
B--------------------/11-8--------------------------|
G--12--12-10h12-8-10---------12--12-12\10--10-10\8--|
D---------------------------------------------------|
A---------------------------------------------------|
D---------------------------------------------------|


[Pre-verse solo]
e-----------------------------------------------|
B-----------------------------/11--8--/11--/13--|
G--10h12p10\8-8h10p8\7-7h7-p7-------------------|
D-----------------------------------------------|
A-----------------------------------------------|
D-----------------------------------------------|

e-----------------------------------------------|
B-----------------------------/11-8-/13-/15-/16-|
G--10h12p10\8-8h10p8\7-7h7-p7-------------------|
D-----------------------------------------------|
A-----------------------------------------------|
D-----------------------------------------------|

(Guitar 1 rests through verse 2)

[Bridge]
Alternate picking again
4X
e-----------------------------------------------|
B-----------------------------------------------|
G--8~--10~--13~---------------------------------|
D-----------------------------------------------|
A-----------------------------------------------|
D-----------------------------------------------|

[Chorus]
2X
e---------------------------------------------------|
B--------------------/11-8--------------------/11-8-|
G--12--12-10h12-8-10--------12--12-10h12-8-10-------|
D---------------------------------------------------|
A---------------------------------------------------|
D---------------------------------------------------|

e---------------------------------------------------|
B--------------------/11-8--------------------------|
G--12--12-10h12-8-10---------12--12-12\10--10-10\8--|
D---------------------------------------------------|
A---------------------------------------------------|
D---------------------------------------------------|


[Outro]
2X
e---------------------------------------------------|
B--------------------/11-8--------------------/11-8-|
G--12--12-10h12-8-10--------12--12-10h12-8-10-------|
D---------------------------------------------------|
A---------------------------------------------------|
D---------------------------------------------------|

e---------------------------------------------------|
B--------------------/11-8--------------------------|
G--12--12-10h12-8-10---------12--12-12\10--10-10\8--|
D---------------------------------------------------|
A---------------------------------------------------|
D---------------------------------------------------|

Last time
"It's a long way back to California"
e---------------------------------------------------|
B---------------------------------------------------|
G--12-12--10-10--8-hold-----------------------------|
D---------------------------------------------------|
A---------------------------------------------------|
D---------------------------------------------------|




============================================================================



Guitar 2

[Intro]
e-----------------------------------------------|
B-----------------------------------------------|
G-----------------------------------------------|
D--1----6----1----6----1----6----1----6---------|
A--1----6----1----6----1----6----1----6---------|
D--1----6----1----6----1----6----1----6---------|


[Verse 1]
e-----------------------------------------------|
B-----------------------------------------------|
G-----------------------------------------------|
D--1--------------------------------------------|
A--1--hold--------------------------------------|
D--1--------------------------------------------|

"So I started to tremble out a verse..."
e-----------------------------------------------|
B-----------------------------------------------|
G-----------------5----3------------------------|
D--1------6-------5----3----6-------------------|
A--1------6-------3----1----6-------------------|
D--1------6-----------------6-------------------|


[Chorus]
Listen for the rythm
2X
e-----------------------------------------------|
B-----------------------------------------------|
G-----------------5----3------------------------|
D--1------6-------5----3----6-------------------|
A--1------6-------3----1----6-------------------|
D--1------6-----------------6-------------------|


[Pre-verse solo]
e-----------------------------------------------|
B-----------------------------------------------|
G-----------------------------------------------|
D--1----6----1----6-----------------------------|
A--1----6----1----6-----------------------------|
D--1----6----1----6-----------------------------|


[Verse 2]

e-----------------------------------------------|
B-----------------------------------------------|
G-----------------5----3------------------------|
D--1------6-------5----3----6-------------------|
A--1------6-------3----1----6-------------------|
D--1------6-----------------6-------------------|


[Bridge]
e-----------------------------------------------|
B-----------------------------------------------|
G-------3----5-------------3----5---------------|
D--6----3----5--------6----3----5---------------|
A--6----1----3--------6----1----3---------------|
D--6------------------6-------------------------|

e-----------------------------------------------|
B-----------------------------------------------|
G-------3----5----------------------------------|
D--6----3----5--------6~------------------------|
A--6----1----3--------6~------------------------|
D--6------------------6~------------------------|

[Chorus]
2X
e-----------------------------------------------|
B-----------------------------------------------|
G-----------------5----3------------------------|
D--1------6-------5----3----6-------------------|
A--1------6-------3----1----6-------------------|
D--1------6-----------------6-------------------|


[Outro]
2X
e-----------------------------------------------|
B-----------------------------------------------|
G-----------------5----3------------------------|
D--1------6-------5----3----6-------------------|
A--1------6-------3----1----6-------------------|
D--1------6-----------------6-------------------|


Last time
"It's a long way back to California"
e-----------------------------------------------|
B-----------------------------------------------|
G--5--5----3-3----------------------------------|
D--5--5----3-3----6-----------------------------|
A--3--3----1-1----6--hold-----------------------|
D-----------------6-----------------------------|





comments
We did not receive enough feedback on this tab! Please rate:
print report bad tab
1 2 3 4 5
I want to post or [tab]
guest
You may want to rate the tab now too:
select rating
Please do not post tabs as comments. Select "correction" instead!