Oops, an error
Loading. Please wait.

Your Birthday Song Tab

3,666 views 1 this week
1 commentread comment
1 2 3 4 5
accurate
x 3
add to favorites
launch autoscroll
font size
0
reset
how to read this tab
guitar tuner
Autoscroll
slow
fast
+/-
esc
set tempo
stop
Help us to improve Ultimate-Guitar.com Take our survey!
×
Author
Difficulty
novice
-------------------------------------------------------------------------------
                             YOUR BIRTHDAY SONG - Go Radio
-------------------------------------------------------------------------------
Tabbed by: Dan K.
Email: dandaman208@hotmail.com

Tuning:Standard

This is a beautiful song, and there are no tabs at all on the internet, so here it is,
I tabbed the entire thing from scratch, and I'm certain it's perfect. Even the fingerings
are spot on, judging by a live performance. You don't need to stick rigidly to the picking
pattern I wrote, you can be abit looser, especially in the chorus. If you want, you can just
play the chords. Have fun with it! Rate and comment. Enjoy

CHORDS.

C  - x32010
Em7- 02001x
A7 - x02010
G  - x55030
F  - x33010

[Verse]

    C            Em7            A7             G
e|------------------------------------------------------------|
B|--------1-------------3-------------1--------------3--------|
G|------0---0---0-----0---0---0-----0----0---0-----0---0---0--|
D|---2--------2----0--------0----2---------2----5--------5----|
A|---3-------------2-------------0--------------5-------------|
E|------------------------------------------------------------|

    F            G              C
e|------------------------------------------------------------|
B|------1------------3-------------------3--------------------|
G|----0---0---0----0---0---0-----------0---------0------------|
D|--3-------3----5-------5-----2~--0h2-----2h3-2---0h20-------|
A|--3------------5-------------3-~----------------------3~----|
E|------------------------------------------------------------|


[Chorus]

     C            G              A7            Em7
e-|-----------------------------------------------------------|
B-|------1--------------3--------------1------------3---------|
G-|----0---0----0-----0----0---0-----0---0---0----0---0---0---|
D-|--2--------2----5---------0----2--------2----0-------0-----|
A-|--3-------------5--------------0-------------2-------------|
E-|-----------------------------------------------------------|

     F            G              C
e-|-----------------------------------------------------------|
B-|------1------------3-------------------3-------------------|
G-|----0----0----0----0---0---0-----------0-------------------|
D-|--3--------3----5-------5-----2~--0h2-----2h3-2~-----------|
A-|--3-------------5-------------3-~--------------------------|
E-|-----------------------------------------------------------|

    C            G              A7              G
e-|-----------------------------------------------------------|
B-|------1--------------3--------------1------------3---------|
G-|----0---0----0-----0----0---0-----0---0---0----0---0---0---|
D-|--2--------2----5---------0----2--------2----5-------5-----|
A-|--3-------------5--------------0-------------5-------------|
E-|-----------------------------------------------------------|

     F            G              C
e-|-----------------------------------------------------------|
B-|------1------------3-------------------3-------------------|
G-|----0----0----0----0---0---0-----------0-------------------|
D-|--3--------3----5-------5-----2~--0h2-----2h3-2~-----------|
A-|--3-------------5-------------3-~--------------------------|
E-|-----------------------------------------------------------|

And thats it! The order is

[Verse] x2
[Chorus]
[Verse]x2
[Chorus]
[Verse] x2
[Chorus] x2

Thanks,
Dan k.


************************************

| /   slide up
| \   slide down
| h   hammer-on
| p   pull-off
| ~   vibrato
| +   harmonic
| x   Mute note
| b   Bend
| pb  Pre-bend
| br  Bend release
| pbr Pre-bend release
| brb Bend release bend

************************************
Suggest correction
What's this?
You can suggest a correction to this tab. Community and Mods will review your correction and vote to approve or reject it.
comments
We did not receive enough feedback on this tab! Please rate:
print report bad tab
1 2 3 4 5
1 comment total.
0 reply
captain-italian 19 wrote on November 7 2010, 06:13 am

x02010

guest
You may want to rate the tab now too:
select rating
Please do not post tabs as comments. Select "correction" instead!