Oops, an error
Loading. Please wait.

Run To Your Mama tab

by Goat
2,410 views 18 this week
no commentswrite comment
1 2 3 4 5
x 4
add to favorites
×
Save as Personal and add changes to this tab that will be seen only by you. Learn more ›
×
You can save this tab as Personal to edit and correct it or add notes. All changes will be seen only by you. Learn more »
launch autoscroll
font size
0
reset
how to read this tab
guitar tuner
edit
Autoscroll
slow
fast
+/-
esc
set tempo
stop
Author
-------------------------------------------------------------------------------
                             Goat - Run to your Mama
-------------------------------------------------------------------------------
Tabbed by: Running_Dogg
E-mail: onlycrims@gmail.com

Tuning: Standard


Easy piece by Goat, just few pchords but still fun to play





----------------------------------
Background thingy
----------------------------------

By the whole song theres a simple background thing going on.
I guess they play it with 2nd guitar but you can play it beetwen main chords
and it sounds good to me

clean, up and down picking


e|---------------------------------------------------------------------------|
B|---------------------------------------------------------------------------|
G|-------------------------------OR------------------------------------------|
D|---------------------------------------00-00-00-00-00-00-------------------|
A|--55-55-55-55-55-55--------------------------------------------------------|
E|---------------------------------------------------------------------------|





----------------------------------
Intro and bridge riff
----------------------------------

Distorted


e|---------------------------------------------------------------------------|
B|---------------------------------------------------------------------------|
G|---------------------------------------------------------------------------|
D|---5----8--7---------------------------------------------------------------|
A|---5----8--7---------------------------------------------------------------|
E|---3----6--5---------------------------------------------------------------|




----------------------------------
Verse riff
----------------------------------

Its played four times every verse, at 1st and 3rd time you kill the last power chord
at 2nd and 4th you let it ring

e|---------------------------------------------------------------------------|
B|---------------------------------------------------------------------------|
G|---------------------------------------------------------------------------|
D|----5----7-----10---7-----5---7--------------------------------------------|
A|----3----5-----8----5-----3---5--------------------------------------------|
E|---------------------------------------------------------------------------|



Then you play Intro once and Verse riff 4 times again


Play intro riff one more time and there goes outro

-------------------------------
Outro riff
-------------------------------

Play it 4 times

e|---------------------------------------------------------------------------|
B|---------------------------------------------------------------------------|
G|----------heres some time for you------------------------------------------|
D|---5---7--to put that background thing-------------------------------------|
A|---3---5-------------------------------------------------------------------|
E|---------------------------------------------------------------------------|


And end with this

e|---------------------------------------------------------------------------|
B|---------------------------------------------------------------------------|
G|----------------7~---------------------------------------------------------|
D|----------------7~---------------------------------------------------------|
A|---5---8--7-----5~---------------------------------------------------------|
E|---3---6--5----------------------------------------------------------------|




************************************

| /   slide up
| \   slide down
| h   hammer-on
| p   pull-off
| ~   vibrato
| +   harmonic
| x   Mute note
| b   Bend
| pb  Pre-bend
| br  Bend release
| pbr Pre-bend release
| brb Bend release bend

            
            
Suggest correction
Creating personal tab
Creating personal tab
You can edit any tab online and save it as your Personal.

You can edit, replace or remove any tab part or add personal notes – all changes will be seen only by you.

Personal tabs can be accessed anytime from any device, even offline.
Learn more »
comments
print report bad tab
guest
You may want to rate the tab now too:
select rating
Wanna post a correction for this tab? Suggest correction