Oops, an error
Loading. Please wait.

Acid Orgy Tab

346 views 1 this week
no commentswrite comment
1 2 3 4 5
excellent!
x 3
add to favorites
launch autoscroll
font size
0
reset
how to read this tab
guitar tuner
Autoscroll
slow
fast
+/-
esc
set tempo
stop
Help us to improve Ultimate-Guitar.com Take our survey!
×
Author
Difficulty
Tuning
novice
D G C F A D
Tuning (D Tuning 1/4 Step Higher)        pm=Palm Mute
D             *=Stop ringing note
A
F
C
G
D

Intro + Verses Riff
D|-----------|-------------|
A|-----------|-------------|
F|-----------|-------------|
C|-----------|-------------|
G|-2----6----|-5--4--3--2--|
D|-0----4----|-3--2--1--0--|
               pm pm pm pm 
Chorus Riff
D|-----------|-------------|
A|-----------|-------------|
F|-----------|-------------|
C|-----------|-------------|
G|-2----6----|*------------|
D|-0----4----|*------------|
Alternative Riff 1
D|-----------|-------------|
A|-----------|-------------|
F|-----------|-------------|
C|-----------|-------------|
G|-2----6----|-7-----3-----|
D|-0----4----|-5-----1-----|
Alternative Riff 2
D|-----------|-------------|
A|-----------|-------------|
F|-----------|-------------|
C|-----------|-------------|
G|-2----6----|-5-4-*--4-3-*|
D|-0----4----|-3-2-*--2-1-*|
Alternative Riff 3
D|----------------|----------------|
A|----------------|----------------|
F|----------------|----------------|
C|----------------|----------------|
G|-----3------5-4-|-----3------5-4-|
D|-00001--00003-2-|-00001--00003-2-|
 pm----   ----      ----   ----
Outro
D|-----------------|----------|
A|-----------------|----------|
F|-----------------|----------|
C|-----------------|----------|
G|-2-*-2-*-2-*-2-*-|-22222222-|
D|-0-*-0-*-0-*-0-*-|-00000000-|

http://www.metal-archives.com/bands/Goatlord/4230
Suggest correction
Give kudos to tab author, rate the tab!
1 2 3 4 5
comments
print report bad tab
guest
You may want to rate the tab now too:
select rating
Wanna post a correction for this tab? Suggest correction