Oops, an error
Loading. Please wait.

Alchemy Of The Black Sun Cult Bass Tab

version 1
version 1

Whole song

Interactive

538 views 1 this week
no commentswrite comment
1 2 3 4 5
please rate
add to favorites
launch autoscroll
font size
0
reset
guitar tuner
Tab Pro tools
  • play this tab
  • loop segment
  • change instrument
  • show fretboard
  • metronome
Autoscroll
slow
fast
+/-
esc
set tempo
stop
Contributor
Difficulty
intermediate
-------------------------------------------------------------------------------
			     ALCHEMY OF THE BLACK SUN CULT - GOATWHORE
-------------------------------------------------------------------------------

Tabbed By : JO MAMA/ BASS
e-mail: vromanjm@crcs.k12.ny.us

Tuning:EADG

G|---------------------------------------------------------------------------|
D|---------------------------------------------------------------------------|
A|-------------6-------------------------------------------------------------|
E|----5555--------------555-----------98----------XX----------87-------------|x4

G|---------------------------------------------------------------------------|
D|---------------------------------------------------------------------------|
A|---------------------------------------------------------------------------|
E|-----5-5--3-3---------5-5--3-3---------5-5--3-3---------5-5--6-6-----------|x4

G|---------------------------------------------------------------------------|
D|---------------------------------------------------------------------------|
A|---------------------------------------------------------------------------|
E|-----5--5--5--5--5--5--5--5--5--5--5--5---6---2---6------------------------|x4

G|---------------------------------------------------------------------------|
D|---------------------------------------------------------------------------|
A|---------------------------------------------------------------------------|
E|-----5-5--3-3---------5-5--3-3---------5-5--3-3---------5-5--6-6-----------|x4

G|---------------------------------------------------------------------------|
D|---------------------------------------------------------------------------|
A|-------------6-------------------------------------------------------------|
E|----5555--------------555-----------98----------XX----------87-------------|x1

G|---------------------------------------------------------------------------|
D|---------------------------------------------------------------------------|
A|---------------------------------------------------------------------------|
E|-----5-5--3-3---------5-5--3-3---------5-5--3-3---------5-5--6-6-----------|x1

G|---------------------------------------------------------------------------|
D|---------------------------------------------------------------------------|
A|-------------6-------------------------------------------------------------|
E|----5555--------------555-----------98----------XX----------87-------------|x1

G|---------------------------------------------------------------------------|
D|---------------------------------------------------------------------------|
A|---------------------------------------------------------------------------|
E|-----5-5--3-3---------5-5--3-3---------5-5--3-3---------5-5--6-6-----------|x4

G|---------------------------------------------------------------------------|
D|---------------------------------------------------------------------------|
A|-----------------------65-----------------4---------5----------7-----------|
E|-----555555555555-------------6---666666-------66--------66----------------|x4

G|---------------------------------------------------------------------------|
D|---------------------------------------------------------------------------|
A|-------------6-------------------------------------------------------------|
E|----5555--------------555-----------98----------XX----------87-------------|x2

G|---------------------------------------------------------------------------|
D|---------------------------------------------------------------------------|
A|-------------10------------------------------------------------------------|
E|----9999--------------999-----------14-13---------XX----------12-11--------|x4

G|---------------------------------------------------------------------------|
D|---------------------------------------------------------------------------|
A|---------------------------------------------------------------------------|
E|---5-555----5-555----5-555-6-5-6-8---555----5-555--3--555-4-3-4-5----------|x4

G|---------------------------------------------------------------------------|
D|---------------------------------------------------------------------------|
A|----------765-----------765--------------765--------------7---------5------|
E|----5------------5---------------5------------------5----------4-----------|x8

G|---------------------------------------------------------------------------|
D|---------------------------------------------------------------------------|
A|---------------------------------------------------------------------------|
E|---5-555----5-555----5-555-6-5-6-8---555----5-555--3--555-4-3-4-5----------|x4

G|---------------------------------------------------------------------------|
D|---------------------------------------------------------------------------|
A|---------------------------------------------------------------------------|
E|-----5--5--5--5--5--5--5--5--5--5--5--5---6---2---6------------------------|x4

G|---------------------------------------------------------------------------|
D|---------------------------------------------------------------------------|
A|---------------------------------------------------------------------------|
E|-----5-5--3-3---------5-5--3-3---------5-5--3-3---------5-5--6-6-----------|x4

G|---------------------------------------------------------------------------|
D|---------------------------------------------------------------------------|
A|-------------6-------------------------------------------------------------|
E|----5555--------------555-----------98----------XX----------87-------------|x1

DONE!!!

| /  slide up
| \  slide down
| h  hammer-on
| p  pull-off
| ~  vibrato
| +  harmonic
| x  Mute note
===============================================================================
comments
We did not receive enough feedback on this tab! Please rate:
print report bad tab
1 2 3 4 5
I want to post or [tab]
guest
You may want to rate the tab now too:
select rating
Please do not post tabs as comments. Select "correction" instead!