Oops, an error
Loading. Please wait.

Alchemy Of The Black Sun Cult Tab

version 2
version 2

Whole song

Interactive

675 views 1 this week
no commentswrite comment
1 2 3 4 5
3 more votes to show rating
add to favorites
launch autoscroll
font size
0
reset
how to read this tab
guitar tuner
Autoscroll
slow
fast
+/-
esc
set tempo
stop
Help us to improve Ultimate-Guitar.com Take our survey!
×
Author
Difficulty
Tuning
intermediate
C G C F A D
--------------------------------------------------------------------------
                 Alchemy of the Black Sun Cult- Goatwhore
----------------------------------------------------------------------------
Tabbed by: Joe Vroman
Email:vromanjm@crcs.k12.ny.us

Tuning:Drop C (CGCFAD)

This is my first guitar tab and was the first song i learned to play all the way 
through. Im almost positive the tab is perfect, and im absolutely positive that its better than 
the other tabs i found of this song.

D|-------------------------------------------------------------------|
A|-------------------------------------------------------------------|
F|-------------------------------------------------------------------|
C|-5-5-3-5-5-5-3-5-5-5-3-5-6-6-3-3---5-5-3-5-5-5-3-5-5-5-3-5-6-6-3~~-|
G|-5-5-3-5-5-5-3-5-5-5-3-5-6-6-3-3---5-5-3-5-5-5-3-5-5-5-3-5-6-6-3~~-|
C|-5-5-3-5-5-5-3-5-5-5-3-5-6-6-3-3---5-5-3-5-5-5-3-5-5-5-3-5-6-6-3~~-|x2

D|-------------------------|
A|-------------------------|
F|-------------------------|
C|------6------------------|
G|------4------9-8-----8-7-|
C|-5555---5555-9-8-8-8-8-7-|X4

D|-------------------------------------------------------------------|
A|-------------------------------------------------------------------|
F|-------------------------------------------------------------------|
C|-5-5-3-5-5-5-3-5-5-5-3-5-6-6-3-3---5-5-3-5-5-5-3-5-5-5-3-5-6-6-3~~-|
G|-5-5-3-5-5-5-3-5-5-5-3-5-6-6-3-3---5-5-3-5-5-5-3-5-5-5-3-5-6-6-3~~-|
C|-5-5-3-5-5-5-3-5-5-5-3-5-6-6-3-3---5-5-3-5-5-5-3-5-5-5-3-5-6-6-3~~-|x2

D|--------------------------------------------|
A|--------------------------------------------|
F|--------------------------------------------|
C|-8--7--777--8--7--777--8--7--777--8--7--444-|
G|-8--7--777--8--7--777--8--7--777--8--7--444-|
C|-8--7--777--8--7--777--8--7--777--8--7--444-|X4

D|-------------------------------------------------------------------|
A|-------------------------------------------------------------------|
F|-------------------------------------------------------------------|
C|-5-5-3-5-5-5-3-5-5-5-3-5-6-6-3-3---5-5-3-5-5-5-3-5-5-5-3-5-6-6-3~~-|
G|-5-5-3-5-5-5-3-5-5-5-3-5-6-6-3-3---5-5-3-5-5-5-3-5-5-5-3-5-6-6-3~~-|
C|-5-5-3-5-5-5-3-5-5-5-3-5-6-6-3-3---5-5-3-5-5-5-3-5-5-5-3-5-6-6-3~~-|x2

D|-------------------------|
A|-------------------------|
F|-------------------------|
C|------6------------------|
G|------4------9-8-----8-7-|
C|-5555---5555-9-8-8-8-8-7-|X1

D|---------------------------------|
A|---------------------------------|
F|---------------------------------|
C|-5-5-3-5-5-5-3-5-5-5-3-5-6-6-3~~-|
G|-5-5-3-5-5-5-3-5-5-5-3-5-6-6-3~~-|
C|-5-5-3-5-5-5-3-5-5-5-3-5-6-6-3~~-|X1

D|-------------------------|
A|-------------------------|
F|-------------------------|
C|------6------------------|
G|------4------9-8-----8-7-|
C|-5555---5555-9-8-8-8-8-7-|X1

D|-------------------------------------------------------------------|
A|-------------------------------------------------------------------|
F|-------------------------------------------------------------------|
C|-5-5-3-5-5-5-3-5-5-5-3-5-6-6-3-3---5-5-3-5-5-5-3-5-5-5-3-5-6-6-3~~-|
G|-5-5-3-5-5-5-3-5-5-5-3-5-6-6-3-3---5-5-3-5-5-5-3-5-5-5-3-5-6-6-3~~-|
C|-5-5-3-5-5-5-3-5-5-5-3-5-6-6-3-3---5-5-3-5-5-5-3-5-5-5-3-5-6-6-3~~-|x2

D|-----------------------------------|
A|-----------------------------------|
F|-----------------------------------|
C|-----------------------------------|
G|-333333333333-99-5555-55-6-66-8-88-|
C|-333333333333-99-5555-55-6-66-8-88-|X4

D|-------------------------|
A|-------------------------|
F|-------------------------|
C|------6------------------|
G|------4------9-8-----8-7-|
C|-5555---5555-9-8-8-8-8-7-|X2

D|------------------------------------|
A|------------------------------------|
F|------------------------------------|
C|------------------------------------|
G|-----4444---------------------------|
C|-5555----5555-99-88888888-99-777777-|X2

D|---------------------------------------------------|
A|---------------------------------------------------|
F|-------------------7-6-6-9-------------------------|
C|-------------------7-6-6-9-----------5-----6-3-5-2-|
G|-5-----------------5-4-4-7-----------5-----6-3-5-2-|
C|-0-000-0-000-0-000---------000-0-000-5-000-6-3-5-2-|X4

D|--------------------|
A|--------------------|
F|--------------------|
C|----------------4---|
G|--5-/10-6-5-5-3-2-5-|
C|--5-/10-6-5-5-3---5-|X1

D|-------------------------------------------|
A|-------------------------------------------|
F|-------------------------------------------|
C|---------------------------------------4---|
G|--5-/10-6-5--5-/10-6-5--5-/10-6-5--5-3-2-5-|
C|--5-/10-6-5--5-/10-6-5--5-/10-6-5--5-3---5-|X8

D|---------------------------------------------------|
A|---------------------------------------------------|
F|-------------------7-6-6-9-------------------------|
C|-------------------7-6-6-9-----------5-----6-3-5-2-|
G|-5-----------------5-4-4-7-----------5-----6-3-5-2-|
C|-0-000-0-000-0-000---------000-0-000-5-000-6-3-5-2-|X4

D|--------------------------------------------|
A|--------------------------------------------|
F|--------------------------------------------|
C|-8--7--777--8--7--777--8--7--777--8--7--444-|
G|-8--7--777--8--7--777--8--7--777--8--7--444-|
C|-8--7--777--8--7--777--8--7--777--8--7--444-|X4

D|-------------------------------------------------------------------|
A|-------------------------------------------------------------------|
F|-------------------------------------------------------------------|
C|-5-5-3-5-5-5-3-5-5-5-3-5-6-6-3-3---5-5-3-5-5-5-3-5-5-5-3-5-6-6-3~~-|
G|-5-5-3-5-5-5-3-5-5-5-3-5-6-6-3-3---5-5-3-5-5-5-3-5-5-5-3-5-6-6-3~~-|
C|-5-5-3-5-5-5-3-5-5-5-3-5-6-6-3-3---5-5-3-5-5-5-3-5-5-5-3-5-6-6-3~~-|x2

D|-------------------------|
A|-------------------------|
F|-------------------------|
C|------6------------------|
G|------4------9-8-----8-7-|
C|-5555---5555-9-8-8-8-8-7-|X2

Then Your Done! Fun Song?
************************************
| /   slide up
| \   slide down
| h   hammer-on
| p   pull-off
| ~   vibrato
| +   harmonic
| x   Mute note
| b   Bend
| pb  Pre-bend
| br  Bend release
| pbr Pre-bend release
| brb Bend release bend
  ~ Ring Out
Suggest correction
Give kudos to tab author, rate the tab!
1 2 3 4 5
comments
print report bad tab
guest
You may want to rate the tab now too:
select rating
Wanna post a correction for this tab? Suggest correction