Oops, an error
Loading. Please wait.

Save Me Now Chords

1 view 1 this week
no commentswrite comment
1 2 3 4 5
3 more votes to show rating
add to favorites
launch autoscroll
font size
0
reset
transpose
0
reset
display chords
guitar tuner
Autoscroll
slow
fast
+/-
esc
set tempo
stop
Help us to improve Ultimate-Guitar.com Take our survey!
×
Author
Difficulty
intermediate
[Intro]

Guitar 1

G F

F C D Bb

Guitar 2

e-------------------------------------------------
B-------------------------------------------------
G------9-10-------9-10---9-10-------9-10----------
D-------------------------------------------------
A----8------8-8-8------8------8-8-8---------------
E-------------------------------------------------

e---------------------------------------------------------------------------------------
B---------------------------------------------------------------------------------------
G------9-10-------9-10-----9-10----------9-10----9-10----------9-10---9-10-------9-10---
D-----------------------10------10-10-10------12------12-12-12------8------8-8-8--------
A----8------8-8-8-----------------------------------------------------------------------
E---------------------------------------------------------------------------------------


[Verse 1]
   F
It started on a morning around one week ago
      D
I was answering to questions which I don't even know
C
And from then on it went on and went on
  Bb
I noticed more and more
   F
I don't mind getting older over some other things
                D
But when you're coming out with phrases that your dad only says
     C
You gotta admit that you can't let it go
    Bb
And all is not ok


[Bridge]
C    D  Bb
Help me out, is it just me
C   D    Bb
Falling down
                F
If only I knew why

[Chorus]
                C
Please save me now
                     Am
I don't know what to say
                       G
I'm starting to like staying in
                     F
The world can keep away
                C
Please save me now
             Am
What am I to do?
              G
Every single day I get more and more like you

[Break]
F C D Bb

[Verse 2]
N.C.
Sitting doing nothing but I'm more than content
              D
And then I'll go and mow the lawn
It's such a happy event
C
What's going on, going on, going on?
Bb
Something's wrong with me

[Bridge]
C    D   Bb
Help me out, is it just me
C   D    Bb
Falling down
                  F
If I only I knew why

[Chorus]
                C
Please save me now
                    Am
Don't know what to say
                       G
I'm starting to like staying in
                    F
The world can keep away
                C
Please save me now
             Am
What am I to do?
              G
Every single day I get more and more

[Break]
D
Kinda got the feeling
      Bb                    F
That nothing can stop this going
                C
And that's not alright
D                      Bb                             F
Turning into what you dread is worse than what you're thinking
              C     A
Until you've seen it

[Chorus]
N.C.
Please save me now
N.C.
I don't know what to say
                      G
I'm starting to like staying in
                    F
The world can keep away
                C
Please save me now
                     Am
I don't know what to say
                       G
I'm starting to like staying in
                    F
The world can keep away

                C
Please save me now
             Am
What am I to do?
              G
Every single day I get more and more like you.

F F 
Suggest correction
Give kudos to tab author, rate the tab!
1 2 3 4 5
comments
print report bad tab
guest
You may want to rate the tab now too:
select rating
Wanna post a correction for this tab? Suggest correction