Oops, an error
Loading. Please wait.

Bully bass

by Gob
737 views 1 this week
no commentswrite comment
1 2 3 4 5
2 more votes to show rating
add to favorites
×
Save as Personal and add changes to this tab that will be seen only by you. Learn more ›
×
You can save this tab as Personal to edit and correct it or add notes. All changes will be seen only by you. Learn more »
launch autoscroll
font size
0
reset
guitar tuner
edit
Autoscroll
slow
fast
+/-
esc
set tempo
stop
Guitar Verse x2

Pre-verse x4
Gb:|----------|
Db:|----------|
Ab:|-------33-|
Eb:|555-33----|

Verse x2
Gb:|------------------------------------------|
Db:|------------------------------------------|
Ab:|------------------33-------------------33-|
Eb:|5555-5555-5555-33----5555-5555-5555-33----|

Gb:|------------------------------------------|
Db:|------------------------------------------|
Ab:|------------------33-------------------33-|
Eb:|3333-3333-3333-33----5555-5555-5555-33----|

Fill without bass

Chorus x2
Gb:|------------------------------------|
Db:|------------------3333-3-3----------|
Ab:|---------------------------33-55555-|
Eb:|5555-5-5-3333-3-3-------------------|

Pre-Verse x2

Verse x2

(slide down from 12th fret on E sting)

Chorus x4

Break x4
Gb:|----------------------------------------|
Db:|--------------------3333-3333-----------|
Ab:|------------------------------3333-5555-|
Eb:|5555-5555-3333-3333---------------------|

Bass Solo x11 1/2 (Do not play second half the 12th time)
Gb:|----------|------------|
Db:|----------|------------|
Ab:|----------|---------33-|
Eb:|5555-5555-|-5555-33----|

Pre-Verse x8

Chorus x4

Break x2

            
            
Suggest correction
Creating personal tab
Creating personal tab
You can edit any tab online and save it as your Personal.

You can edit, replace or remove any tab part or add personal notes – all changes will be seen only by you.

Personal tabs can be accessed anytime from any device, even offline.
Learn more »
Give kudos to tab author, rate the tab!
1 2 3 4 5
comments
print report bad tab
guest
You may want to rate the tab now too:
select rating
Wanna post a correction for this tab? Suggest correction