Oops, an error
Loading. Please wait.

Can I Resist ukulele

version 1
version 1

Whole song

Interactive

by Gob
16 views 1 this week
no commentswrite comment
1 2 3 4 5
3 more votes to show rating
add to favorites
×
Save as Personal and add changes to this tab that will be seen only by you. Learn more ›
×
You can save this tab as Personal to edit and correct it or add notes. All changes will be seen only by you. Learn more »
launch autoscroll
font size
0
reset
transpose
0
reset
display chords
guitar tuner
edit
Autoscroll
slow
fast
+/-
esc
set tempo
stop
Strumming
There is no strumming pattern for this song yet. and get +5 IQ
Gob
Can I Resist
World According To Gob
2000
Submitted by: paramore_fans@yahoo.com

Key: G#

Tuning: Standard EADGBe

Chords used:
C# -  x46664
G# -  466544
Bbm - x13321
F# -  244322
Eb -  x68886
Bb -  x13331


Intro: C#-G#--Bbm-F#- x4


Verse 1:
G#
so what so what so what
          Bbm     F#
so what became of you
G#                    Bbm F#
why did you disappear?
G#
i heard i heard i
heard you came
Bbm         F#
looking for me
G#
you had something
to share


Chorus 1:
G#            F#
all i say how can i
         C#
resist i won't look back
        Eb
there's nothing to stop me
G#            F#
all i say how can i resist
C#
don't look back you'll
Bbm          Bb
never find me
C#
never find me Now!


Guitar 2: "can I resist"
e|---------|
B|---------|
G|---------|
D|---------|
A|-4-3-1---|
E|-------4-|

          Bbm "never find me"
e|---------------------------------|
B|---------------------------------|
G|-3-3-3-3-3-3-3-3-7-7-7-7-7-7-7-7-|
D|-x-x-x-x-x-x-x-x-x-x-x-x-x-x-x-x-|
A|-1-1-1-1-1-1-1-1-5-5-5-5-5-5-5-5-|
E|---------------------------------|

          C# "never find me"
e|-----------------------------------------|
B|-----------------------------------------|
G|-6-6-6-6-6-6-6-6-10-10-10-10-10-10-10-10-|
D|-x-x-x-x-x-x-x-x--x--x--x--x--x--x--x--x-|
A|-4-4-4-4-4-4-4-4--8--8--8--8--8--8--8--8-|
E|-----------------------------------------|


Interlude: C#-G#--Bbm-F#- x2


Verse 2:
G#
hello hello hello
           Bbm F#
hello it's me again
    G#                 Bbm F#
i'm sorry to bother you
G#
  you know you know
you know more
     Bbm  F# G#
than ever i  need you
               Bbm F#
to make it true
G#
so what so what so what
          Bbm     F#
so what became of you
G#                    Bbm F#
why did you disappear?
G#
  i need i need i need you to
Bbm     F#  G#
show me how it's supposed to feel


Chorus 2:
G#            F#
all i say how can i
         C#
resist i won't look back
        Eb
there's nothing to stop me
G#            F#
all i say how can i resist
C#
don't look back you'll
Eb
never find me


Chorus 3:
G#            F#
all i say how can i
         C#
resist i won't look back
        Eb
there's nothing to stop me
G#            F#
all i say how can i resist
C#
don't look back you'll
Bbm          Bb
never find me
C#
never find me


Guitar Solo:
G#--F#--C#--Eb-- x2

Guitar 2: Solo
         G#                 F#               C#            
tr = tremolo effects
e|-----4-----4---4-|-----4-----4---4-|----------------|-------------|
B|-4-4---3-4---4---|-2-2---0-2---2---|-4--3-2-0--2----|-------------|
G|-----------------|-----------------|--------------1-|-1h3-----1tr-|
D|-----------------|-----------------|----------------|------4------|
A|-----------------|-----------------|----------------|-------------|
E|-----------------|-----------------|----------------|-------------|

                G#                         F#
e|---------2---------------2-------|------------------|
B|-4-2-0-2---2-0-2-4-2-0-2---2-0-2-|-2--0--2-3-0------|
G|---------------------------------|--------------1tr-|
D|---------------------------------|------------------|
A|---------------------------------|------------------|
E|---------------------------------|------------------|
        Very fast sweeping!!!

       C#                    Eb                      G#(Chorus)
e|---2---2-4-|-6-6-6-6-8-8-8-8-9-9-9-9-11-11-13-13-|-16-16-16-16-|
B|-4---4-----|-------------------------------------|-------------|
G|-----------|-------------------------------------|-------------|
D|-----------|-------------------------------------|-------------|
A|-----------|-------------------------------------|-------------|
E|-----------|-------------------------------------|-------------|
                     Very fast picking!!!

(Repeat Chorus 2)


Chorus 4:
G#            F#
all i say how can i
         C#
resist i won't look back
        Eb
there's nothing to stop me
G#            F#
all i say how can i resist
C#
don't look back you'll
Bbm
never find me
C#
never find me
Bbm          Bb
never find me
C#           F#-G#--F#-G#(hold)
never find me

            
            
Suggest correction
Creating personal tab
Creating personal tab
You can edit any tab online and save it as your Personal.

You can edit, replace or remove any tab part or add personal notes – all changes will be seen only by you.

Personal tabs can be accessed anytime from any device, even offline.
Learn more »
Give kudos to tab author, rate the tab!
1 2 3 4 5
comments
print report bad tab
guest
Wanna post a correction for this tab? Suggest correction