Oops, an error
Loading. Please wait.

Custers Last One Night Stand bass

by Gob
190 views 1 this week
1 commentread comment
1 2 3 4 5
2 more votes to show rating
add to favorites
×
Save as Personal and add changes to this tab that will be seen only by you. Learn more ›
×
You can save this tab as Personal to edit and correct it or add notes. All changes will be seen only by you. Learn more »
launch autoscroll
font size
0
reset
guitar tuner
edit
Autoscroll
slow
fast
+/-
esc
set tempo
stop
do you remember late last night?
we were jumping curbs in the parking lot,
we shared some good times and some bad but we always knew..
-----------------------------------------------------------------|
-----------------------------------------------------------------|
-5-5-5-5-5-5-5-5-------------------------------------------------|
-----------------5-5-5-5-5-5-5-5-2-2-2-2-2-2-2-2-3-3-3-3-3-3-3-3-|

what he had you know he could never,
never look back to the time that changed everything in his mind.
-----------------------------------------------------------------|
-----------------------------------------------------------------|
-5-5-5-5-5-5-5-5-------------------------------------------------|
-----------------5-5-5-5-5-5-5-5-2-2-2-2-2-2-2-2-3-3-3-3-3-3-3-3-|

even one day soon he would look back maybe,
maybe the pain would go away maybe even stay away
-----------------------------------------------------------------|
-----------------------------------------------------------------|
-5-5-5-5-5-5-5-5-------------------------------------------------|
-----------------5-5-5-5-5-5-5-5-2-2-2-2-2-2-2-2-3-3-3-3-3-3-3-3-|

but it makes me scream, ya ya ya
-----------------------------------------------------------------|
-----------------------------------------------------------------|
-5-5-5-5-5-5-5-5-------------------------------------------------|
-----------------5-5-5-5-5-5-5-5-2-2-2-2-2-2-2-2-3-3-3-3-3-3-3-3-|

but it makes me scream, ya ya ya
-----------------------------------------------------------------|
-----------------------------------------------------------------|
-5-5-5-5-5-5-5-5-------------------------------------------------|
-----------------5-5-5-5-5-5-5-5-2-2-2-2-2-2-2-2-3-3-3-3-3-3-3-3-|

do you think i could get up on my own?
i don't think so
---------------------|
---------------------|
-5-5-----------------|
-----2-2-2-2-3-3-3-3-|

do you think i could find my way back home?
i don't think so
---------------------|
---------------------|
-5-5-----------------|
-----2-2-2-2-3-3-3-3-|

one day soon you will look back maybe,
maybe even lose your head and realize what they said.
-----------------------------------------------------------------|
-----------------------------------------------------------------|
-5-5-5-5-5-5-5-5-------------------------------------------------|
-----------------5-5-5-5-5-5-5-5-2-2-2-2-2-2-2-2-3-3-3-3-3-3-3-3-|

when you find yourself looking down
and you run around looking for someone,
can't you see?
-----------------------------------------------------------------|
-----------------------------------------------------------------|
-5-5-5-5-5-5-5-5-------------------------------------------------|
-----------------5-5-5-5-5-5-5-5-2-2-2-2-2-2-2-2-3-3-3-3-3-3-3-3-|

but it makes me scream, ya ya ya
-----------------------------------------------------------------|
-----------------------------------------------------------------|
-5-5-5-5-5-5-5-5-------------------------------------------------|
-----------------5-5-5-5-5-5-5-5-2-2-2-2-2-2-2-2-3-3-3-3-3-3-3-3-|

but it makes me scream, ya ya ya
-----------------------------------------------------------------|
-----------------------------------------------------------------|
-5-5-5-5-5-5-5-5-------------------------------------------------|
-----------------5-5-5-5-5-5-5-5-2-2-2-2-2-2-2-2-3-3-3-3-3-3-3-3-|

---------------------|
---------------------|
-5-5-----------------|
-----2-2-2-2-3-3-3-3-|

-----
-----
-5-5-
-----

            
            
Suggest correction
Creating personal tab
Creating personal tab
You can edit any tab online and save it as your Personal.

You can edit, replace or remove any tab part or add personal notes – all changes will be seen only by you.

Personal tabs can be accessed anytime from any device, even offline.
Learn more »
Give kudos to tab author, rate the tab!
1 2 3 4 5
comments
print report bad tab
1 comment total.
0 reply
frenchabortion 17,168 May 28, 2008 01:43 PM

Chorus ( sometimes they have the bass fills....)
-----------------------------------------------------------------|
-----4-4-5-5-7-7-------------------------------------------------|
-5-5-----------------4-4-5-5-7-7-----1-1-2-2-4-4-----2-2-3-3-5-5-|
-----------------5-5-------------2-2-------------3-3-------------|

guest
You may want to rate the tab now too:
select rating
Wanna post a correction for this tab? Suggest correction