Oops, an error
Loading. Please wait.

Embitter Me Sweet ukulele

by Gob
19 views 1 this week
no commentswrite comment
1 2 3 4 5
3 more votes to show rating
add to favorites
×
Save as Personal and add changes to this tab that will be seen only by you. Learn more ›
×
You can save this tab as Personal to edit and correct it or add notes. All changes will be seen only by you. Learn more »
launch autoscroll
font size
0
reset
transpose
0
reset
display chords
guitar tuner
edit
Autoscroll
slow
fast
+/-
esc
set tempo
stop
Strumming
There is no strumming pattern for this song yet. and get +5 IQ
Gob
Embitter Me Sweet
Muertos Vivos
2007
Submitted: paramore_fans@yahoo.com

Key: Eb

Tuning: Standard EADGBe

Chords used:
G# - 466544
Eb - x68886
C# - x46664
Cm - x35543
Fm - 133111


Intro:

Tom:
                G#                                Eb
e|--------------------------------|-------------------------------|
B|--------------------------------|-------------------------------|
G|--------------------------------|-------------------------------|
D|-----5-------5------5-------3-5-|-----5------5------5-------3-5-| x2
A|------------------------6-------|-6-6----6-6----6-6---6-6-6-----|
E|-4-4-----4-4----4-4---4---4-----|-------------------------------|


Verse 1:
G#
  Come over come and pull me on
Eb
  I'll come and I complement you
G#
  And let you digging to yourself
Eb
  I'll never, never forget you


Refrain 1:
G#     Cm
  Come out from hiding
Fm     G#
  Come back to haunt me
Fm     Cm            Fm
  I'll let you put me  down


Theo: Refrain
        G#             Cm             Fm             G#
e|--------------|--------------|--------------|--------------|
B|--------------|-----3------4-|--------------|------------4-|
G|-----3------5-|--------------|-----0------3-|--------------|
D|--------------|--------------|--------------|-----6--------|
A|--------------|-3-3----3-3---|--------------|--------------|
E|-4-4----4-4---|--------------|-1-1----1-1---|-4-4----4-4---|

        G#             Cm             Fm
e|--------------|--------------|------------1-|
B|--------------|-----3------4-|-----3--------|
G|-----3------5-|--------------|--------------|
D|--------------|--------------|--------------|
A|--------------|-3-3----3-3---|--------------|
E|-4-4----4-4---|--------------|-1-1----1-1---|


Interlude:

Tom:
                G#                                Eb
e|--------------------------------|-------------------------------|
B|--------------------------------|-------------------------------|
G|--------------------------------|-------------------------------|
D|-----5-------5------5-------3-5-|-----5------5------5-------3-5-|
A|------------------------6-------|-6-6----6-6----6-6---6-6-6-----|
E|-4-4-----4-4----4-4---4---4-----|-------------------------------|


Theo: Interlude
           G#                    Eb
e|--4----3----1--------|-4----3----1--------|
B|-----------------4---|----------------4---|
G|----3----3----3----3-|---3----3----3----3-|
D|---------------------|--------------------|
A|---------------------|--------------------|
E|---------------------|--------------------|


Verse 2:
G#
  I'm always picking you apart
Eb
  I'm leaving scratches on my heart
G#
  I look for someone else to blame
Eb
  I'm always chunking up names


Refrain 2:
G#        Cm
  Forever waiting
Fm    G#
  I'm suffocating
G#       Cm
  You're flinking
        Fm  G#
drag me down


Chorus 1:
Fm              Eb
  You stuck by slither in me
C#            Fm             G#
  Oh yeah I'm out here for a tea
Fm              Eb
  I fall down deliver and bleed
C#
  and just you're
Fm             G#
missing your attempt on
Fm                Eb
  I caught up and you begin to bleed
C#        Fm                 G#
  Oh yeah you're attached to me
Fm             Eb
  I want you embitter me sweet oh
C#            Fm          G#
  you have to treasure my pain


(Repeat Interlude)


Verse 3:
G#
  I tried to get me
inside your head
Eb
  whatever gets me
through the day
G#
  I'm always
feeling disconnect
Eb
  I'm over running away
G#
  I know I don't
deserve a thing
Eb
  I ask you to come
you confuse me


Refrain 3:
G#    Cm
  And soon or later
Fm       G#
  You're taking too far
G#     Cm              Fm
  You slip and drag me down
    G#
and sound familiar


(Repeat Chorus 1)


Guitar Solo:

Tom:
   Fm    Eb     Fm       Cm   Bb      Cm                      G#
e|-----|---|---3-3-3---|-----|---|-----------|-----------------3-3-3-3---------|
B|-----|---|---------4-|-----|---|---4-4-4---|---------4-4-4-4-----------------|
G|-----|-8-|-----------|-5-5-|-3-|-5-------3-|-------------------------3-3-3-3-|
D|-3-3-|-8-|-3---------|-5-5-|-3-|-5---------|-6-6-6-6-------------------------|
A|-3-3-|-6-|-3---------|-3-3-|-1-|-3---------|-6-6-6-6-------------------------|
E|-1-1-|---|-1---------|-----|---|-----------|-4-4-4-4-------------------------|

   Fm    Eb     Fm       Cm   Bb      Cm                      G#
e|-----|---|---3-3-3-4-|-----|---|---------1-|-----------------3-3-3-3---------|
B|-----|---|-----------|-----|---|---4-4-4---|---------4-4-4-4---------4-4-4-4-|
G|-----|-8-|-----------|-5-5-|-3-|-5---------|---------------------------------|
D|-3-3-|-8-|-3---------|-5-5-|-3-|-5---------|-6-6-6-6-------------------------|
A|-3-3-|-6-|-3---------|-3-3-|-1-|-3---------|-6-6-6-6-------------------------|
E|-1-1-|---|-1---------|-----|---|-----------|-4-4-4-4-------------------------|

      Fm      Eb   Fm  Eb        Cm                         G#
e|-----------|---|---|---|-----------------|---------------------------------|
B|-----------|---|---|---|-----------------|---------------------------------|
G|-----------|-8-|---|---|-5-5-5-5-5-5-5-5-|---------------------------------|
D|-3-3-3-3-3-|-8-|-3-|-8-|-5-5-5-5-5-5-5-5-|-6-6-6-6-6-6-6-6-6-6-6-6-6-6-6-6-| x2
A|-3-3-3-3-3-|-6-|-3-|-8-|-3-3-3-3-3-3-3-3-|-6-6-6-6-6-6-6-6-6-6-6-6-6-6-6-6-|
E|-1-1-1-1-1-|---|-1-|-6-|-----------------|-4-4-4-4-4-4-4-4-4-4-4-4-4-4-4-4-|

                G#
e|---------------------------------|
B|---------------------------------|
G|---------------------------------|
D|6-6-6-6-6-6-6-6-6-6-6-6-6-6-6-6--|
A|6-6-6-6-6-6-6-6-6-6-6-6-6-6-6-6--|
E|4-4-4-4-4-4-4-4-4-4-4-4-4-4-4-4--|


Theo:
   Fm    Eb        Fm         Cm   Bb        Cm                      G#
e|-----|---|---11-11-11-11-|-----|---|---15-15-------|-------------------------8-8-8-8-|
B|-----|---|---------------|-----|---|---------16-16-|---------9-9-9-9-9-9-9-9---------|
G|-----|-8-|---------------|-5-5-|-3-|-5-------------|---------------------------------|
D|-3-3-|-8-|-3-------------|-5-5-|-3-|-5-------------|-6-6-6-6-------------------------|
A|-3-3-|-6-|-3-------------|-3-3-|-1-|-3-------------|-6-6-6-6-------------------------|
E|-1-1-|---|-1-------------|-----|---|---------------|-4-4-4-4-------------------------|

   Fm    Eb        Fm         Cm   Bb        Cm                            G#
e|-----|---|---11-11-11-11-|-----|---|---15-15-------|-------------------------8---8---8---8---|
B|-----|---|---------------|-----|---|---------16-16-|---------9-9-9-9-9-9-9-9---9---9---9---9-|
G|-----|-8-|---------------|-5-5-|-3-|-5-------------|-----------------------------------------|
D|-3-3-|-8-|-3-------------|-5-5-|-3-|-5-------------|-6-6-6-6---------------------------------|
A|-3-3-|-6-|-3-------------|-3-3-|-1-|-3-------------|-6-6-6-6---------------------------------|
E|-1-1-|---|-1-------------|-----|---|---------------|-4-4-4-4---------------------------------|

      Fm      Eb   Fm  Eb        Cm                     G#
e|-----------|---|---|---|-----------------|---------------------------|
B|-----------|---|---|---|-----------------|-------4-4-4--3-3-3--1-1-1-|
G|-----------|-8-|---|---|-5-5-5-5-5-5-5-5-|---------------------------|
D|-3-3-3-3-3-|-8-|-3-|-8-|-5-5-5-5-5-5-5-5-|-6-6-6---------------------| x2
A|-3-3-3-3-3-|-6-|-3-|-8-|-3-3-3-3-3-3-3-3-|-6-6-6---------------------|
E|-1-1-1-1-1-|---|-1-|-6-|-----------------|-4-4-4---------------------|

               G#
e|---------------------------|
B|-------4-4-4--3-3-3--1-1-1-|
G|---------------------------|
D|6-6-6----------------------|
A|6-6-6----------------------|
E|4-4-4----------------------|


Breakdown:

Theo:
       Eb
e|--------------|
B|-8--6--8--9-9-|
G|-8--8--8--8-8-|
D|--------------| x4
A|--------------|
E|--------------|


Chorus 2:
Fm              Eb
  You stuck by slither in me
C#            Fm             G#
  Oh yeah I'm out here for a tea
Fm              Eb
  I fall down deliver and bleed
C#
  and just you're
Fm             G#
missing your attempt on
Fm                Eb
  I caught up and you begin to bleed
C#               Fm               G#
  Oh yeah you're failing for just nothing
Fm             Eb
  I want you embitter me sweet oh
C#            Fm          G#
  you have to treasure my pain
Fm             Eb
  I want you embitter me sweet oh
C#            Fm          G#
  you have to treasure my pain
Fm             Eb
  I want you embitter me sweet oh
C#            Fm          G#
  you have to treasure my pain


Outro: Fm-Eb-C#(hold)

            
            
Suggest correction
Creating personal tab
Creating personal tab
You can edit any tab online and save it as your Personal.

You can edit, replace or remove any tab part or add personal notes – all changes will be seen only by you.

Personal tabs can be accessed anytime from any device, even offline.
Learn more »
Give kudos to tab author, rate the tab!
1 2 3 4 5
comments
print report bad tab
guest
Wanna post a correction for this tab? Suggest correction