Oops, an error
Loading. Please wait.

Ive Been Up These Steps Tab

version 1
version 1

Whole song

1,644 views 3 this week
1 commentread comment
1 2 3 4 5
x 4
add to favorites
launch autoscroll
font size
0
reset
how to read this tab
guitar tuner
×
Best way to learn
"Ive Been Up These Steps"
Autoscroll
slow
fast
+/-
esc
set tempo
stop
-------------------------------------------------------------------------------
                             I'VE BEEN UP THESE STEPS - Gob
-------------------------------------------------------------------------------

Tabbed by: Matt Longpre
Email: nemesis_257@shaw.ca

Tuning: Eb (tune all your strings down a half tone)

This is a brand new one off of Foot In Mouth Disease.

Riff 1
eb|-----------------------00--00--00--00--------------------------------------|
Bb|-----------------------00--00--00--00--------------------------------------|
Gb|-4444------7777------------------------------------------------------------|
Db|-4444-4444-7777-7777-2222222222222222--------------------------------------|
Ab|-2222-4444-5555-7777-2222222222222222--------------------------------------|
Eb|------2222------5555-0000000000000000--------------------------------------|

Riff 2
eb|---------------------------------------------------------------------------|
Bb|---------------------------------------------------------------------------|
Gb|---------------------------------------------------------------------------|
Db|-55555555-22222222---------------------------------------------------------|
Ab|-55555555-22222222---------------------------------------------------------|
Eb|-33333333-00000000---------------------------------------------------------|

Riff 3
eb|---------------------------------------------------------------------------|
Bb|---------------------------------------------------------------------------|
Gb|----------77---------------------------------------------------------------|
Db|-55555555-77-7777----------------------------------------------------------|
Ab|-55555555-55-7777----------------------------------------------------------|
Eb|-33333333----5555----------------------------------------------------------|

Riff 4
eb|---------------------------------------------------------------------------|
Bb|---------------------------------------------------------------------------|
Gb|---------------------------------------------------------------------------|
Db|-------------------222-----------------------------------------------------|
Ab|-000-22-555-----22---------------------------------------------------------|
Eb|------------000------------------------------------------------------------|

That should get you through the whole song.  Email me if you have questions.

===============================================================================
Suggest correction
comments
print report bad tab
1 comment total.
0 reply
DNC 54 Feb 09, 2009 11:27 AM

I think Riff 4 is a bit wrong.

eb|---------------------------------------------------------------------------|
Bb|---------------------------------------------------------------------------|
Gb|---------------------------------------------------------------------------|
Db|-------------------2---------------------------------------------------|
Ab|-------2-5-----0-2-----------------------------------------------------|
Eb|-333-5-----000------------------------------------------------------------|

guest
You may want to rate the tab now too:
select rating
Wanna post a correction for this tab? Suggest correction