Oops, an error
Loading. Please wait.

Oh Ellin bass

version 1
version 1

Whole song

Interactive

by Gob
898 views 3 this week
no commentswrite comment
1 2 3 4 5
1 last vote to show rating
add to favorites
×
Save as Personal and add changes to this tab that will be seen only by you. Learn more ›
×
You can save this tab as Personal to edit and correct it or add notes. All changes will be seen only by you. Learn more »
launch autoscroll
font size
0
reset
guitar tuner
edit
Autoscroll
slow
fast
+/-
esc
set tempo
stop
Intro:
G--------------------------------------|
D--------------------------------------|
A--------------------33333333----------|
E--55555555-11111111----------33333333-|  x2

G----------|
D----------|
A----------|
E-55555555- x1

Please, for the love of God, notice that the bass stops half way though
this....the guitar keeps going and the bass stops

Verse:
G---------------------------------------------|
D---------------------------------------------|
A---------------------------------------------|
E-1-333-1-333-1-333-1-333-3-5555555-3-1111111-|  x4

At the end of the verse, play this:
G---------------------|
D---------------------|
A---------------------|
E-3-5555555-3-1111111-| x1

Chorus:
G--------------------------------------|
D--------------------------------------|
A--------------------33333333----------|
E--55555555-11111111----------33333333-| x2

End of Chorus:
G---------------------------------|
D---------------------------------|
A----------------33--33-----------|
E-55--55--11--11---------33333333-|

Verse 2:
G---------------------------------------------|
D---------------------------------------------|
A---------------------------------------------|
E-1-333-1-333-1-333-1-333-3-5555555-3-1111111-|  x4

Play this at the end of the verse:
G--------------------|
D--------------------|
A--------------------|
E-5555-1111-33333333-|

Chorus:
G--------------------------------------|
D--------------------------------------|
A--------------------33333333----------|
E--55555555-11111111----------33333333-| x4

Bridge:
G---------------------------------------|
D---------------------------------------|
A----------------------------555-----55-|
E-77777777-33333333-77777777-----333----|  x2

G----------------------------------------------|
D----------------------------------------------|
A----------------------------------------------|
E-77777777-33333333-77777777-11111111-11111111-|

Outro:
:::pause for eight buzzes:::

Just bass comes in:

G--------------------------------------|
D--------------------------------------|
A--------------------33333333----------|
E--55555555-11111111----------33333333-| x2

:::other instruments come in:::
G--------------------------------------|
D--------------------------------------|
A--------------------33333333----------|
E--55555555-11111111----------33333333-|

G-------------------------------|
D-------------------------------|
A--------------------33333333---|
E--55555555-11111111----------3-|

:::brief pause:::

G--------------------------------------|
D--------------------------------------|
A--------------------33333333----------|
E--55555555-11111111----------33333333-| x6

End:

G-----
D-----
A-----
E-5-5-

            
            
Suggest correction
Creating personal tab
Creating personal tab
You can edit any tab online and save it as your Personal.

You can edit, replace or remove any tab part or add personal notes – all changes will be seen only by you.

Personal tabs can be accessed anytime from any device, even offline.
Learn more »
Give kudos to tab author, rate the tab!
1 2 3 4 5
comments
print report bad tab
guest
You may want to rate the tab now too:
select rating
Wanna post a correction for this tab? Suggest correction