Oops, an error
Loading. Please wait.

Pinto ukulele

by Gob
15 views 1 this week
no commentswrite comment
1 2 3 4 5
3 more votes to show rating
add to favorites
×
Save as Personal and add changes to this tab that will be seen only by you. Learn more ›
×
You can save this tab as Personal to edit and correct it or add notes. All changes will be seen only by you. Learn more »
launch autoscroll
font size
0
reset
transpose
0
reset
simplify chords
display chords
guitar tuner
edit
Autoscroll
slow
fast
+/-
esc
set tempo
stop
Strumming
There is no strumming pattern for this song yet. and get +5 IQ
Gob
Pinto
World According To Gob
2000
Submittedby: paramore_fans@yahoo.com

Key: G#

Tuning: Standard EADGBe

Chords used:
G# -   466544
Eb -   x68886
Fm -   133111
C# -   x46664
Bbm -  x13321
Eb/G - 365xx


Verse 1:
            G#
you got the first mile 
        Eb
made it htrough 
                    Fm  Eb Fm
but you're falling apart 
           C#
forget the distance 
            Fm
that you've moved 
since you were 
        Bbm
at the start 
G# Bbm           G#
i  bet you would do
            Eb
much better doing 
what you feel 
       Fm   Eb Fm
in you parts 
            C#
because you give 
             G#
and take and give 
                Eb
all that you've got 
and it starts to break you 


Chorus 1:
G#  Eb
down 
  Bbm          C#   
until you have broken
G#  Eb
down 
  Bbm          C#   
until you have broken


Guitar Solo: G#-Eb-Bbm-C#-

Guitar 2: Solo
         G#                 Eb               Bbm                C#          G#(Verse 2)
e|-8-8-8-8-9-9-9-9-|-8-8-8-8-9-9-9-9-|-8---------8----|--------------------|-----|
B|-9-9-9-9-9-9-9-9-|-9-9-9-9-9-9-9-9-|----11--11---11-|-9----9--11h13p11---|-9---|
G|-8-8-8-8-8-8-8-8-|-8-8-8-8-8-8-8-8-|----------------|----8-------------8-|-----|
D|-----------------|-----------------|----------------|--------------------|-----|
A|-----------------|-----------------|----------------|--------------------|-----|
E|-----------------|-----------------|----------------|--------------------|-----|


Verse 2:
           G#        Eb
i've got a bucket of water 
                     Fm  Eb Fm
in case you catch on fire 
           C#
i'm at the pit stop 
            Fm
waiting for you 
                  Bbm
if you blowout or tire
     G# Bbm
i've gotta tell you 
G#                 Eb
  you fight like a bull 
                   Fm  Eb Fm
and that i truly admire 
         C#
that you give and 
         G#
take and give 
                Eb
all that you've got 
and it starts to break you 


Chorus 2:
G#  Eb
down 
  Bbm          C#   
until you have broken
G#  Eb
down 
  Bbm          C#   
until you have broken
G#  Eb C# Bbm
down!
G#  Eb C# Bbm
down!


Bridge: Bass Solo
Fm
  no flag in sight yet 
Eb/G                      Eb
    but you've gotta keep moving
Fm
  if your wheels forsake you 
Eb/G      Eb
    it'll surely break you 
Fm  
  in time you'll be sold 
G#              Eb
  and you might feel cold 
Fm
  but don't forget that 
G#         Eb
  it's the path you've chosen


Guitar Solo: Fm--G#-Eb- x3

Guitar 2: Solo
e|---------8-8-----------------8-8---------------|
B|--------------11-11--9-9--9-------11-11--9-9-8-|
G|-10-10-----------------------------------------|
D|-----------------------------------------------|
A|-----------------------------------------------|
E|-----------------------------------------------|

e|------8-8-----------------8-8---------------|
B|-9-9-------11-11--9-9--9-------11-11--9-9-8-|
G|--------------------------------------------|
D|--------------------------------------------|
A|--------------------------------------------|
E|--------------------------------------------|

e|---------8-8--------------------8-8---------------|
B|--------------11-11--9-9--8--9-------11-11--9-9-8-|
G|-10-10--------------------------------------------|
D|--------------------------------------------------|
A|--------------------------------------------------|
E|--------------------------------------------------|


Breakdown: C#--Eb--

Guitar 2: Breakdown
e|-4-4-4-4-4-3-1-3-4-4-4-4-4-3-1-3-4--3--4-|
B|-----------------------------------------|
G|-----------------------------------------|
D|-----------------------------------------|
A|-----------------------------------------|
E|-----------------------------------------|


Chorus 2:
G#  Eb
down 
  Bbm          C#   
until you have broken
G#  Eb
down 
  Bbm          C#   
until you have broken
G#  Eb C# Bbm
down!
G#  Eb Fm Fm Fm(hold)
down!

            
            
Suggest correction
Creating personal tab
Creating personal tab
You can edit any tab online and save it as your Personal.

You can edit, replace or remove any tab part or add personal notes – all changes will be seen only by you.

Personal tabs can be accessed anytime from any device, even offline.
Learn more »
Give kudos to tab author, rate the tab!
1 2 3 4 5
comments
print report bad tab
guest
Wanna post a correction for this tab? Suggest correction