Oops, an error
Loading. Please wait.

Sleepyhead bass

version 1
version 1

Whole song

Interactive

by Gob
257 views 1 this week
no commentswrite comment
1 2 3 4 5
1 last vote to show rating
add to favorites
×
Save as Personal and add changes to this tab that will be seen only by you. Learn more ›
×
You can save this tab as Personal to edit and correct it or add notes. All changes will be seen only by you. Learn more »
launch autoscroll
font size
0
reset
guitar tuner
edit
Autoscroll
slow
fast
+/-
esc
set tempo
stop
Drop D tuningIntro:
G|---------|------------------------------------|-----------------------------|
D|---------|------------------------------------|-----------------------------|
A|-2-------|22222222----------------------------|22222222---------------------|
E|---6-1-4-|---------66666666-11111111-44444444-|---------66666666-11111111-4-|
Play Once   Play Once                            Play Once
Verse 1: "Painted murder on the..."
G|--------------------------------------|
D|--------------------------------------|
A|-22222222------------------------4444-|
E|----------66666666-11111111-4444------|Play Twice
Verse 2: "Hear the footsteps..."
G|--------------------------------------|
D|--------------------------------------|
A|-22222222----------11111111-2222-4444-|
E|----------66666666--------------------|Play TwiceIntro:

G|------------------------------|
D|------------------------------|
A|-22222222---------------------|
E|----------66666666-11111111-4-|Play Once
Verse 1: "I'm Allergic to the light..."
G|--------------------------------------|
D|--------------------------------------|
A|-22222222------------------------4444-|
E|----------66666666-11111111-4444------|Play Twice
Pre-Chorus: "They Turned the doorknob..."
G|--------------------------------------|-------------------------------------|
D|--------------------------------------|-------------------------------------|
A|-22222222----------11111111-2222-4444-|-22222222----------11111111-22222222-|
E|----------66666666--------------------|----------66666666-------------------|
Play Once                                Play OnceChorus: "I had a dream..."
G|---------------------------|-------------------------|
D|---------------------------|-------------------------|
A|-------------------2x8-----|-------------------2x8---|
E|-4x16-6x16-4x8-1x8-----1x8-|-4x16-6x16-4x8-1x8-----1-|
Play Once                     Play OnceVerse 3:
G|--------------------------------------------|
D|--------------------------------------------|
A|-22222222-----------------------------------|
E|----------66666666-11111111-4-4-4-4-4-4-4-4-|Play OnceVerse 4:
G|---------------------------------------------|
D|---------------------------------------------|
A|-22222222---------------1111-4-4-4-4-4-4-4-4-|
E|----------66666666-1111----------------------|Play Once
Verse 1: "Jam the Foreceps..."
G|--------------------------------------|
D|--------------------------------------|
A|-22222222------------------------4444-|
E|----------66666666-11111111-4444------|Play Twice
Pre-Chorus: "Hey to morning..."
G|--------------------------------------|---------------------|
D|--------------------------------------|---------------------|
A|-22222222----------11111111-2222-4444-|-22222222----------1-|
E|----------66666666--------------------|----------66666666---|
Play Once                                Play OnceChorus: "I had a dream..."
G|-------------------------------------|---------------------------|
D|-------------------------------------|---------------------------|
A|-2---------------------------2x8-----|-------------------2x8-----|
E|---6-1-4---4x16-6x16-4x8-1x8-----1x8-|-4x16-6x16-4x8-1x8-----1x8-|
Play Once                               Play OnceChorus: "I had a dream..."
G|---------------------------------|-------------------------------|
D|---------------------------------|-------------------------------|
A|-2-----------------------2x8-----|-2-----------------------2x8---|
E|---6-1-4x13-6x16-4x8-1x8-----1x8-|---6-1-4x13-6x16-4x8-1x8-----1-|
Play Once                           Play OnceVerse 3
G|--------------------------------------------|
D|--------------------------------------------|
A|-22222222-----------------------------------|
E|----------66666666-11111111-4-4-4-4-4-4-4-4-|Play OnceVerse 4
G|---------------------------------------------|
D|---------------------------------------------|
A|-22222222---------------1111-4-4-4-4-4-4-4-4-|
E|----------66666666-1111----------------------|

            
            
Suggest correction
Creating personal tab
Creating personal tab
You can edit any tab online and save it as your Personal.

You can edit, replace or remove any tab part or add personal notes – all changes will be seen only by you.

Personal tabs can be accessed anytime from any device, even offline.
Learn more »
Give kudos to tab author, rate the tab!
1 2 3 4 5
comments
print report bad tab
guest
You may want to rate the tab now too:
select rating
Wanna post a correction for this tab? Suggest correction