Oops, an error
Loading. Please wait.

Tested Chords

by Gob
13 views 1 this week
1 commentread comment
1 2 3 4 5
1 last vote to show rating
add to favorites
launch autoscroll
font size
0
reset
transpose
0
reset
display chords
guitar tuner
Autoscroll
slow
fast
+/-
esc
set tempo
stop
Help us to improve Ultimate-Guitar.com Take our survey!
×
Author
#----------------------------------PLEASE NOTE--------------------------------#
#This file is the author's own work and represents their interpretation of the#
#song. You may only use this file for private study, scholarship, or research.#
#-----------------------------------------------------------------------------#

BAND: Gob
TITLE: Tested
ALBUM: Gob
TABBED BY: smashguy37@yahoo.com

[INTRO]

    A   G   E               A           A   G   E               A
e |-----------------|-----------------|-----------------|-----------------|
B |-----------------|-----------------|-----------------|-----------------|
G |-----------------|-----------------|-----------------|-----------------|
D |-7---5---2---x-x-|-x-x-------------|-7---5---2---x-x-|-x-x-------------|
A |-7---5---2---x-x-|-x-x-------------|-7---5---2---x-x-|-x-x-------------|
E |-5---3---0---x-x-|-x-x-3-5---3-0---|-5---3---0---x-x-|-x-x-3-5---3-0---|
    1 & 2 & 3 & 4 &   1 & 2 & 3 & 4 &   1 & 2 & 3 & 4 &   1 & 2 & 3 & 4 &

    A   G   E               A           A   G   E               A
e |-----------------|-----------------|-----------------|-----------------|
B |-----------------|-----------------|-----------------|-----------------|
G |-----------------|-----------------|-----------------|-----------------|
D |-7---5---2---x-x-|-x-x-------------|-7---5---2---x-x-|-x-x-------------|
A |-7---5---2---x-x-|-x-x-------------|-7---5---2---x-x-|-x-x-------------|
E |-5---3---0---x-x-|-x-x-3-5---3-0---|-5---3---0---x-x-|-x-x-3-5---3-0---|
    1 & 2 & 3 & 4 &   1 & 2 & 3 & 4 &   1 & 2 & 3 & 4 &   1 & 2 & 3 & 4 &


[VERSE]

               E
        When I was in school
      B          G
        I knew a kid
               A     G  E
        And he lived in a log cabin
      B           G
        Up in the trees
               A   G  E
        But he had no phone
                 E
        Couldn't call him
      B              G
        And now he's gone
               A    G    E
        I just hope that he wasn't taken
      B       G
        By aliens and he'd been

[CHORUS]

        D  A
        Tested
        C  G            Bb
        Tested
        D  A
        Tested
        C  G            Bb
        Tested
        D  A
        Tested
        C  G            Bb
        Tested
        D  A
        Tested
        C  G            Bb
        Tested

[INTRO]

    A   G   E               A           A   G   E               A
e |-----------------|-----------------|-----------------|-----------------|
B |-----------------|-----------------|-----------------|-----------------|
G |-----------------|-----------------|-----------------|-----------------|
D |-7---5---2---x-x-|-x-x-------------|-7---5---2---x-x-|-x-x-------------|
A |-7---5---2---x-x-|-x-x-------------|-7---5---2---x-x-|-x-x-------------|
E |-5---3---0---x-x-|-x-x-3-5---3-0---|-5---3---0---x-x-|-x-x-3-5---3-0---|
    1 & 2 & 3 & 4 &   1 & 2 & 3 & 4 &   1 & 2 & 3 & 4 &   1 & 2 & 3 & 4 &

    A   G   E               A           A   G   E               A
e |-----------------|-----------------|-----------------|-----------------|
B |-----------------|-----------------|-----------------|-----------------|
G |-----------------|-----------------|-----------------|-----------------|
D |-7---5---2---x-x-|-x-x-------------|-7---5---2---x-x-|-x-x-------------|
A |-7---5---2---x-x-|-x-x-------------|-7---5---2---x-x-|-x-x-------------|
E |-5---3---0---x-x-|-x-x-3-5---3-0---|-5---3---0---x-x-|-x-x-3-5---3-0---|
    1 & 2 & 3 & 4 &   1 & 2 & 3 & 4 &   1 & 2 & 3 & 4 &   1 & 2 & 3 & 4 &


[VERSE]

               E
        When I was in school
      B          G
        I knew a kid
               A     G  E
        And he lived in a log cabin
      B           G
        Up in the trees
               A   G  E
        But he had no phone
                 E
        Couldn't call him
      B              G
        And now he's gone
               A    G    E
        I just hope that he wasn't taken
      B       G
        By aliens and he'd been

[CHORUS]

        D  A
        Tested
        C  G            Bb
        Tested
        D  A
        Tested
        C  G            Bb
        Tested
        D  A
        Tested
        C  G            Bb
        Tested
        D  A
        Tested
        C  G            Bb
        Tested

[OUTRO]
(Same chords as verse)

        La la la...
Suggest correction
Give kudos to tab author, rate the tab!
1 2 3 4 5
comments
print report bad tab
1 comment total.
0 reply
Living Dead 31 875 Oct 08, 2016 01:54 PM

Some good old song. Straight back to the childhood :) Nice tab, keep up the good work!

guest
You may want to rate the tab now too:
select rating
Wanna post a correction for this tab? Suggest correction