Oops, an error
Loading. Please wait.

Were All Dying tab

version 2
version 2

Whole song

by Gob
658 views 1 this week
no commentswrite comment
1 2 3 4 5
1 last vote to show rating
add to favorites
×
Save as Personal and add changes to this tab that will be seen only by you. Learn more ›
×
You can save this tab as Personal to edit and correct it or add notes. All changes will be seen only by you. Learn more »
launch autoscroll
font size
0
reset
how to read this tab
guitar tuner
edit
Autoscroll
slow
fast
+/-
esc
set tempo
stop
We're All Dying
Gob
Muertos Vivos (2007)

We're All Dying:  written by Tom Thacker

NOTE: There is a lot of bass in this song, so I thought it best to include it.
I'm not a bassist, but I think it's pretty close.

GTR I - Drop Db Tuning "Tom Thacker" (eb,Bb,Gb,Db,Ab,Db)
GTR II - Drop Db Tuning "Theo Goutzinakis" (eb,Bb,Gb,Db,Ab,Db)
GTR III - Drop Db Tuning Bass "Tyson Maiko" (Gb,Db,Ab,Db)

Intro

   GTR III
Gb|-------------------------------------------------|
Db|-----3-----3-----3-----3-----3-----3-----3-----3-|
Ab|--5-----5-----5-----5-----5-----5-----5-----5----|
Db|-------------------------------------------------|

   GTR III
Gb|-------------------------------------------------|
Db|-----3-----3-----3-----3-----3-----3-----3-----3-|
Ab|--5-----5-----5-----5-----5-----5-----5-----5----|
Db|-------------------------------------------------|

Verse 

   GTR I,II,III
eb|-------------|------------|------------|------------|
Bb|-------------|------------|------------|------------|
Gb|-------------|------------|------------|------------|
Db|-------------|------------|------------|------------|
Ab|-------------|------------|------------|------------|
Db|-------------|------------|------------|------------|

   GTR I,II,III
eb|-------------|------------|------------|------------|
Bb|-------------|------------|------------|------------|
Gb|-------------|------------|------------|------------|
Db|-------------|------------|------------|------------|
Ab|-------------|------------|------------|------------|
Db|-------------|------------|------------|------------|

Verse 2

   GTR III
Gb|-------------------------------------------------|
Db|-------------------------------------------------|
Ab|-------------------------------------------------|
Db|--5--5--5--5--5--5--5--5--3--3--3--3--3--3--3--3-|

   GTR III
Gb|-------------------------------------------------|
Db|-------------------------------------------------|
Ab|--3--3--3--3--3--3--3--3--5--5--5--5--5--5--5--5-|
Db|-------------------------------------------------|

   GTR III
Gb|-------------------------------------------------|
Db|-------------------------------------------------|
Ab|-------------------------------------------------|
Db|--5--5--5--5--5--5--5--5--3--3--3--3--3--3--3--3-|

   GTR III
Gb|-------------------------------------------------|
Db|-------------------------------------------------|
Ab|--3--3--3--3--3--3--3--3--5--5--5--5--5--5--5--5-|
Db|-------------------------------------------------|

   GTR I,II
eb|-------------------------------------------------|
Bb|-------------------------------------------------|
Gb|-------------------------------------------------|
Db|-------------------------------------------------|
Ab|-------------------------------------------12\---|
Db|-------------------------------------------12\---|
  |
  |GTR III
Gb|-------------------------------------------------|
Db|-------------------------------------------------|
Ab|--3--3--3--3--3--3--3--3--5--5--5--5--5--5--5--5-|
Db|-------------------------------------------------|

Chorus

   GTR I,II
eb|-------------------------------------------------|
Bb|-------------------------------------------------|
Gb|--------------------------------------3-----3----|
Db|--0--0--0--0--0--0--0--0--0--0--0--0--3-----3----|
Ab|--0--0--0--0--0--0--0--0--0--0--0--0--1-----1----|
Db|--0--0--0--0--0--0--0--0--0--0--0--0-------------|
  |
  |GTR III
Gb|-------------------------------------------------|
Db|-------------------------------------------------|
Ab|--------------------------------------1-----1----|
Db|--0--0--0--0--0--0--0--0--0--0--0--0-------------|

   GTR I,II
eb|-------------------------------------------------|
Bb|-------------------------------------------------|
Gb|-------------------------------------------------|
Db|--3--3--3--3--3--3--3--3--3--3--3--3--5-----5----|
Ab|--3--3--3--3--3--3--3--3--3--3--3--3--5-----5----|
Db|--3--3--3--3--3--3--3--3--3--3--3--3--5-----5----|
  |
  |GTR III
Gb|-------------------------------------------------|
Db|-------------------------------------------------|
Ab|-------------------------------------------------|
Db|--3--3--3--3--3--3--3--3--3--3--3--3--5-----5----|

   GTR I,II
eb|-------------------------------------------------|
Bb|-------------------------------------------------|
Gb|--------------------------------------3-----3----|
Db|--0--0--0--0--0--0--0--0--0--0--0--0--3-----3----|
Ab|--0--0--0--0--0--0--0--0--0--0--0--0--1-----1----|
Db|--0--0--0--0--0--0--0--0--0--0--0--0-------------|
  |
  |GTR III
Gb|-------------------------------------------------|
Db|-------------------------------------------------|
Ab|--------------------------------------1-----1----|
Db|--0--0--0--0--0--0--0--0--0--0--0--0-------------|

   GTR I,II
eb|-------------------------------------------------|
Bb|-------------------------------------------------|
Gb|-------------------------------------------------|
Db|--3--3--3--3--3--3--3--3--3--3--3--3--5-----5----|
Ab|--3--3--3--3--3--3--3--3--3--3--3--3--5-----5----|
Db|--3--3--3--3--3--3--3--3--3--3--3--3--5-----5----|
  |
  |GTR III
Gb|-------------------------------------------------|
Db|-------------------------------------------------|
Ab|-------------------------------------------------|
Db|--3--3--3--3--3--3--3--3--3--3--3--3--5-----5----|

Post Chorus

   GTR I,II
eb|-------------------------------------------------|
Bb|-------------------------------------------------|
Gb|--------------------------------------3--3--3--3-|
Db|--0--0--0--0--0--0--0--0--0--0--0--0--3--3--3--3-|
Ab|--0--0--0--0--0--0--0--0--0--0--0--0--1--1--1--1-|
Db|--0--0--0--0--0--0--0--0--0--0--0--0-------------|
  |
  |GTR III
Gb|-------------------------------------------------|
Db|-------------------------------------------------|
Ab|--------------------------------------1--1--1--1-|
Db|--0--0--0--0--0--0--0--0--0--0--0--0-------------|

Verse

   GTR I,II,III
eb|-------------|------------|------------|------------|
Bb|-------------|------------|------------|------------|
Gb|-------------|------------|------------|------------|
Db|-------------|------------|------------|------------|
Ab|-------------|------------|------------|------------|
Db|-------------|------------|------------|------------|

   GTR I,II,III
eb|-------------|------------|------------|------------|
Bb|-------------|------------|------------|------------|
Gb|-------------|------------|------------|------------|
Db|-------------|------------|------------|------------|
Ab|-------------|------------|------------|------------|
Db|-------------|------------|------------|------------|

Verse 2

   GTR I,II
eb|-------------------------------------------------|
Bb|-------------------------------------------------|
Gb|-12-12-12-12-12-12-12-12-10-10-10-10-14-14-14-14-|
Db|-12-12-12-12-12-12-12-12-12-12-12-12-12-12-12-12-|
Ab|-------------------------------------------------|
Db|-------------------------------------------------|
  |  .  .  .  .  .  .  .  .  .  .  .  .  .  .  .  .
  |GTR III
Gb|-------------------------------------------------|
Db|-------------------------------------------------|
Ab|-------------------------------------------------|
Db|--5--5--5--5--5--5--5--5--3--3--3--3--3--3--3--3-|

   GTR I,II
eb|-------------------------------------------------|
Bb|-------------------------------------------------|
Gb|--9--9--9--9--9--9--9--9-10-10-10-10-14-14-14-14-|
Db|-10-10-10-10-10-10-10-10-12-12-12-12-12-12-12-12-|
Ab|-------------------------------------------------|
Db|-------------------------------------------------|
  |  .  .  .  .  .  .  .  .  .  .  .  .  .  .  .  .
  |GTR III
Gb|-------------------------------------------------|
Db|-------------------------------------------------|
Ab|--3--3--3--3--3--3--3--3--5--5--5--5--5--5--5--5-|
Db|-------------------------------------------------|

   GTR I,II
eb|-------------------------------------------------|
Bb|-------------------------------------------------|
Gb|-12-12-12-12-12-12-12-12-10-10-10-10-14-14-14-14-|
Db|-12-12-12-12-12-12-12-12-12-12-12-12-12-12-12-12-|
Ab|-------------------------------------------------|
Db|-------------------------------------------------|
  |  .  .  .  .  .  .  .  .  .  .  .  .  .  .  .  .
  |GTR III
Gb|-------------------------------------------------|
Db|-------------------------------------------------|
Ab|-------------------------------------------------|
Db|--5--5--5--5--5--5--5--5--3--3--3--3--3--3--3--3-|

   GTR I,II
eb|-------------------------------------------------|
Bb|-------------------------------------------------|
Gb|--9--9--9--9--9--9--9--9-10-10-10-10-10-10-10-10-|
Db|-10-10-10-10-10-10-10-10-12-12-12-12-12-12-12-12-|
Ab|-------------------------------------------------|
Db|-------------------------------------------------|
  |  .  .  .  .  .  .  .  .  .  .  .  .  .  .  .  .
  |GTR III
Gb|-------------------------------------------------|
Db|-------------------------------------------------|
Ab|--3--3--3--3--3--3--3--3--5--5--5--5--5--5--5--5-|
Db|-------------------------------------------------|

   GTR I,II
eb|-------------------------------------------(5)---|
Bb|-------------------------------------------(5)(7)|
Gb|--9--9--9--9--9--9--9--9--9-----9-----9----------|
Db|-10-10-10-10-10-10-10-10-10----10----10----------|
Ab|-------------------------------------------------|
Db|-------------------------------------------------|
  |  .  .  .  .  .  .  .  .  .     .     .         
  |GTR III
Gb|-------------------------------------------------|
Db|-------------------------------------------------|
Ab|--3--3--3--3--3--3--3--3--3-----3-----3-----3----|
Db|-------------------------------------------------|

Chorus 2

   GTR I,II
eb|-------------------------------------------------|
Bb|-------------------------------------------------|
Gb|--------------------------------------3-----3----|
Db|--0--0--0--0--0--0--0--0--0--0--0--0--3-----3----|
Ab|--0--0--0--0--0--0--0--0--0--0--0--0--1-----1----|
Db|--0--0--0--0--0--0--0--0--0--0--0--0-------------|
  |
  |GTR III
Gb|-------------------------------------------------|
Db|-------------------------------------------------|
Ab|--------------------------------------1-----1----|
Db|--0--0--0--0--0--0--0--0--0--0--0--0-------------|

   GTR I,II
eb|-------------------------------------------------|
Bb|-------------------------------------------------|
Gb|-------------------------------------------------|
Db|--3--3--3--3--3--3--3--3--3--3--3--3--5-----5----|
Ab|--3--3--3--3--3--3--3--3--3--3--3--3--5-----5----|
Db|--3--3--3--3--3--3--3--3--3--3--3--3--5-----5----|
  |
  |GTR III
Gb|-------------------------------------------------|
Db|-------------------------------------------------|
Ab|-------------------------------------------------|
Db|--3--3--3--3--3--3--3--3--3--3--3--3--5-----5----|

   GTR I,II
eb|-------------------------------------------------|
Bb|-------------------------------------------------|
Gb|--------------------------------------3-----3----|
Db|--0--0--0--0--0--0--0--0--0--0--0--0--3-----3----|
Ab|--0--0--0--0--0--0--0--0--0--0--0--0--1-----1----|
Db|--0--0--0--0--0--0--0--0--0--0--0--0-------------|
  |
  |GTR III
Gb|-------------------------------------------------|
Db|-------------------------------------------------|
Ab|--------------------------------------1-----1----|
Db|--0--0--0--0--0--0--0--0--0--0--0--0-------------|

   GTR I,II
eb|-------------------------------------------------|
Bb|-------------------------------------------------|
Gb|-------------------------------------------------|
Db|--3--3--3--3--3--3--3--3--3--3--3--3--5-----5----|
Ab|--3--3--3--3--3--3--3--3--3--3--3--3--5-----5----|
Db|--3--3--3--3--3--3--3--3--3--3--3--3--5-----5----|
  |
  |GTR III
Gb|-------------------------------------------------|
Db|-------------------------------------------------|
Ab|-------------------------------------------------|
Db|--3--3--3--3--3--3--3--3--3--3--3--3--5-----5----|

   GTR I,II
eb|-------------------------------------------------|
Bb|-------------------------------------------------|
Gb|--------------------------------------3-----3----|
Db|--0--0--0--0--0--0--0--0--0--0--0--0--3-----3----|
Ab|--0--0--0--0--0--0--0--0--0--0--0--0--1-----1----|
Db|--0--0--0--0--0--0--0--0--0--0--0--0-------------|
  |
  |GTR III
Gb|-------------------------------------------------|
Db|-------------------------------------------------|
Ab|--------------------------------------1-----1----|
Db|--0--0--0--0--0--0--0--0--0--0--0--0-------------|

   GTR I,II
eb|-------------------------------------------------|
Bb|-------------------------------------------------|
Gb|-------------------------------------------------|
Db|--3--3--3--3--3--3--3--3--3--3--3--3--5-----5----|
Ab|--3--3--3--3--3--3--3--3--3--3--3--3--5-----5----|
Db|--3--3--3--3--3--3--3--3--3--3--3--3--5-----5----|
  |
  |GTR III
Gb|-------------------------------------------------|
Db|-------------------------------------------------|
Ab|-------------------------------------------------|
Db|--3--3--3--3--3--3--3--3--3--3--3--3--5-----5----|

   GTR I,II
eb|-------------------------------------------------|
Bb|-------------------------------------------------|
Gb|--------------------------------------3-----3----|
Db|--0--0--0--0--0--0--0--0--0--0--0--0--3-----3----|
Ab|--0--0--0--0--0--0--0--0--0--0--0--0--1-----1----|
Db|--0--0--0--0--0--0--0--0--0--0--0--0-------------|
  |
  |GTR III
Gb|-------------------------------------------------|
Db|-------------------------------------------------|
Ab|--------------------------------------1-----1----|
Db|--0--0--0--0--0--0--0--0--0--0--0--0-------------|

   GTR I,II
eb|-------------------------------------------------|
Bb|-------------------------------------------------|
Gb|-------------------------------------------------|
Db|--3--3--3--3--3--3--3--3--3--3--3--3--5-----5----|
Ab|--3--3--3--3--3--3--3--3--3--3--3--3--5-----5----|
Db|--3--3--3--3--3--3--3--3--3--3--3--3--5-----5----|
  |
  |GTR III
Gb|-------------------------------------------------|
Db|-------------------------------------------------|
Ab|-------------------------------------------------|
Db|--3--3--3--3--3--3--3--3--3--3--3--3--5-----5----|

Bridge

   GTR II
eb|-------------------------------------------------|
Bb|-------------------------------------------------|
Gb|-------------------------------------------------|
Db|-------------------------------------------------|
Ab|-------------------------------------------------|
Db|--3--3--3--0--0--0--2--2--2--0--0--0--2--2--0--0-|

   GTR I
eb|-------------------------------------------------|
Bb|-------------------------------------------------|
Gb|-------------------------------------------------|
Db|-------------------------------------------------|
Ab|-------------------------------------------------|
Db|--------------------------------------2--3--2--0-|
  |
  |GTR II
eb|-------------------------------------------------|
Bb|-------------------------------------------------|
Gb|-------------------------------------------------|
Db|-------------------------------------------------|
Ab|-------------------------------------------------|
Db|--5--5--5--5--5--0--3-----------------2--3--2--0-|
  |
  |GTR III
Gb|-------------------------------------------------|
Db|-------------------------------------------------|
Ab|-------------------------------------------------|
Db|--------------------------------------2--3--2--0-|

   GTR I
eb|-------------------------------------------------|
Bb|-------------------------------------------------|
Gb|-------------------------------------------------|
Db|-------------------------------------------------|
Ab|--8--8--8--5--5--5--7--7--7--5--5--5--7--7--5--5-|
Db|-------------------------------------------------|
  |
  |GTR II,III
eb|-------------------------------------------------|
Bb|-------------------------------------------------|
Gb|-------------------------------------------------|
Db|-------------------------------------------------|
Ab|-------------------------------------------------|
Db|--3--3--3--0--0--0--2--2--2--0--0--0--2--2--0--0-|

   GTR I
eb|-------------------------------------------------|
Bb|-------------------------------------------------|
Gb|-------------------------------------------------|
Db|-------------------------------------------------|
Ab|-10-10-10-10b-r--5--8--------8--8--5--7--7--7--7-|
Db|-------------------------------------------------|
  |
  |GTR II,III
eb|-------------------------------------------------|
Bb|-------------------------------------------------|
Gb|-------------------------------------------------|
Db|-------------------------------------------------|
Ab|-------------------------------------------------|
Db|--5--5--5--5--5--0--3--------3--3--0--2--2--2--2-|

   GTR I
eb|-------------------------------------------------|
Bb|-------------------------------------------------|
Gb|-------------------12-12-12-12-12-12-12-12-12-12-|
Db|--------------------x--x--x--x--x--x--x--x--x--x-|
Ab|--8--8--8--5--5--5-10-10-10-10-10-10-10-10-10-10-|
Db|-------------------------------------------------|
  |
  |GTR II,III
eb|-------------------------------------------------|
Bb|-------------------------------------------------|
Gb|-------------------------------------------------|
Db|-------------------------------------------------|
Ab|-------------------------------------------------|
Db|--3--3--3--0--0--0--2--2--2--0--0--0--2--2--0--0-|

   GTR I
eb|-------------------------------------------------|
Bb|-------------------------------------------------|
Gb|-15-15-15-17\15-12-14----------------14-14-14-14-|
Db|--x--x--x--x--x--x--x-----------------x--x--x--x-|
Ab|-13-13-13-15\13-10-12----------------12-12-12-12-|
Db|-------------------------------------------------|
  |
  |GTR II                                |---TRM---|
eb|-------------------------------------------------|
Bb|-------------------------------------------------|
Gb|-------------------------------------------------|
Db|-------------------------------------------------|
Ab|--------------------------------------3--3--3--3-|
Db|--5--5--5--5--5--0--3--------3--3--0-------------|
  |
  |GTR III
Gb|-------------------------------------------------|
Db|-------------------------------------------------|
Ab|--------------------------------------3--3--3--3-|
Db|--5--5--5--5--5--0--3--------3--3--0-------------|

Guitar Solo

   GTR I (With Wah)
eb|-------------------------------------------------|
Bb|-------------------------------------------------|
Gb|-14-14-14-14-14-14-12-12-12-12-12-12-12-12-12-12-|
Db|--x--x--x--x--x--x--x--x--x--x--x--x--x--x--x--x-|
Ab|-12-12-12-12-12-12-10-10-10-10-10-10-10-10-10-10-|
Db|-------------------------------------------------|
  |
  |GTR II,III
eb|-------------------------------------------------|
Bb|-------------------------------------------------|
Gb|-------------------------------------------------|
Db|-------------------------------------------------|
Ab|-------------------------------------------------|
Db|--3--3--3--0--0--0--2--2--2--0--0--0--2--2--0--0-|

   GTR I
eb|-------------------------------------------------|
Bb|-------------------------------------------------|
Gb|-15-15-15-15-15-15-14-14-14-14-14-14-12-12-12-12-|
Db|--x--x--x--x--x--x--x--x--x--x--x--x--x--x--x--x-|
Ab|-13-13-13-13-13-13-12-12-12-12-12-12-10-10-10-10-|
Db|-------------------------------------------------|
  |
  |GTR II,III
eb|-------------------------------------------------|
Bb|-------------------------------------------------|
Gb|-------------------------------------------------|
Db|-------------------------------------------------|
Ab|-------------------------------------------------|
Db|--5--5--5--5--5--0--3--------3--3--0--2--2--2--2-|

   GTR I
eb|-------------------------------------------------|
Bb|-------------------------------------------------|
Gb|-14-14-14-14-14-14-12-12-12-12-12-12-12-12-12-12-|
Db|--x--x--x--x--x--x--x--x--x--x--x--x--x--x--x--x-|
Ab|-12-12-12-12-12-12-10-10-10-10-10-10-10-10-10-10-|
Db|-------------------------------------------------|
  |
  |GTR II,III
eb|-------------------------------------------------|
Bb|-------------------------------------------------|
Gb|-------------------------------------------------|
Db|-------------------------------------------------|
Ab|-------------------------------------------------|
Db|--3--3--3--0--0--0--2--2--2--0--0--0--2--2--0--0-|

   GTR I
eb|-------------------------------------------------|
Bb|-------------------------------------------------|
Gb|-15-15-15-15-15-15-14-14-14-14-14-14-12-12-12-12-|
Db|--x--x--x--x--x--x--x--x--x--x--x--x--x--x--x--x-|
Ab|-13-13-13-13-13-13-12-12-12-12-12-12-10-10-10-10-|
Db|-------------------------------------------------|
  |
  |GTR II,III
eb|-------------------------------------------------|
Bb|-------------------------------------------------|
Gb|-------------------------------------------------|
Db|-------------------------------------------------|
Ab|-------------------------------------------------|
Db|--5--5--5--5--5--0--3--------3--3--0--2--3--2--0-|

Post Solo

   GTR I
     |--------------------TRM---------------------|
eb|-------------------------------------------------|
Bb|-------------------------------------------------|
Gb|-------------------------------------------------|
Db|-------------------------------------------------|
Ab|-10-10-10-10-13-13-13-13--8--8--8--8--5--5--5--5-|
Db|-------------------------------------------------|
  |GTR II,II
  |  |--------------------TRM---------------------|
eb|-------------------------------------------------|
Bb|-------------------------------------------------|
Gb|-------------------------------------------------|
Db|-------------------------------------------------|
Ab|-------------------------------------------------|
Db|--5--5--5--8--8--8--8--8--3--3--3--7--7--7--7--7-|

   GTR I
     |--------------------TRM---------------------|
eb|-------------------------------------------------|
Bb|-------------------------------------------------|
Gb|-------------------------------------------------|
Db|-------------------------------------------------|
Ab|--7--7--7--7-10-10-10-10--5--5--5--5--5--5--5--5-|
Db|-------------------------------------------------|
  |GTR II,II
  |  |--------------------TRM---------------------|
eb|-------------------------------------------------|
Bb|-------------------------------------------------|
Gb|-------------------------------------------------|
Db|-------------------------------------------------|
Ab|-------------------------------------------------|
Db|--2--2--2--5--5--5--5--5--0--0--0--3--3--3--3--3-|

     |--------------------TRM---------------------|
eb|-------------------------------------------------|
Bb|-------------------------------------------------|
Gb|-12-12-12-12-15-15-15-15-10-10-10-10--7--7--7--7-|
Db|--x--x--x--x--x--x--x--x--x--x--x--x--x--x--x--x-|
Ab|-10-10-10-10-13-13-13-13--8--8--8--8--5--5--5--5-|
Db|-------------------------------------------------|
  |GTR II,II
  |  |--------------------TRM---------------------|
eb|-------------------------------------------------|
Bb|-------------------------------------------------|
Gb|-------------------------------------------------|
Db|-------------------------------------------------|
Ab|-------------------------------------------------|
Db|--5--5--5--8--8--8--8--8--3--3--3--7--7--7--7--7-|

   GTR I
     |--------------------TRM---------------------|
eb|-------------------------------------------------|
Bb|-------------------------------------------------|
Gb|--9--9--9--9--7--7--7--7-12-12-12-12-12-12-12-12-|
Db|--x--x--x--x--x--x--x--x--x--x--x--x--x--x--x--x-|
Ab|--7--7--7--7--5--5--5--5-10-10-10-10-10-10-10-10-|
Db|-------------------------------------------------|
  |GTR II,II
  |  |--------------------TRM---------------------|
eb|-------------------------------------------------|
Bb|-------------------------------------------------|
Gb|-------------------------------------------------|
Db|-------------------------------------------------|
Ab|-------------------------------------------------|
Db|--2--2--2--5--5--5--5--5--7--7--7--7--7--7--7--7-|

Pre Chorus

   GTR III
Gb|-------------------------------------------------|
Db|-----3-----3-----3-----3-----3-----3-----3-----3-|
Ab|--5-----5-----5-----5-----5-----5-----5-----5----|
Db|-------------------------------------------------|

   GTR I,II
eb|-------------------------------------------------|
Bb|-------------------------------------(5)---------|
Gb|-------------------------------------(5)---------|
Db|-------------------------------------------------|
Ab|-------------------------------------------12\---|
Db|-------------------------------------------12\---|
  |
  |GTR III
Gb|-------------------------------------------------|
Db|-----3-----3-----3-----3-----3-----3-----3-----3-|
Ab|--5-----5-----5-----5-----5-----5-----5-----5----|
Db|-------------------------------------------------|

Chorus 2

   GTR I,II
eb|-------------------------------------------------|
Bb|-------------------------------------------------|
Gb|--------------------------------------3-----3----|
Db|--0--0--0--0--0--0--0--0--0--0--0--0--3-----3----|
Ab|--0--0--0--0--0--0--0--0--0--0--0--0--1-----1----|
Db|--0--0--0--0--0--0--0--0--0--0--0--0-------------|
  |
  |GTR III
Gb|-------------------------------------------------|
Db|-------------------------------------------------|
Ab|--------------------------------------1-----1----|
Db|--0--0--0--0--0--0--0--0--0--0--0--0-------------|

   GTR I,II
eb|-------------------------------------------------|
Bb|-------------------------------------------------|
Gb|-------------------------------------------------|
Db|--3--3--3--3--3--3--3--3--3--3--3--3--5-----5----|
Ab|--3--3--3--3--3--3--3--3--3--3--3--3--5-----5----|
Db|--3--3--3--3--3--3--3--3--3--3--3--3--5-----5----|
  |
  |GTR III
Gb|-------------------------------------------------|
Db|-------------------------------------------------|
Ab|-------------------------------------------------|
Db|--3--3--3--3--3--3--3--3--3--3--3--3--5-----5----|

   GTR I,II
eb|-------------------------------------------------|
Bb|-------------------------------------------------|
Gb|--------------------------------------3-----3----|
Db|--0--0--0--0--0--0--0--0--0--0--0--0--3-----3----|
Ab|--0--0--0--0--0--0--0--0--0--0--0--0--1-----1----|
Db|--0--0--0--0--0--0--0--0--0--0--0--0-------------|
  |
  |GTR III
Gb|-------------------------------------------------|
Db|-------------------------------------------------|
Ab|--------------------------------------1-----1----|
Db|--0--0--0--0--0--0--0--0--0--0--0--0-------------|

   GTR I,II
eb|-------------------------------------------------|
Bb|-------------------------------------------------|
Gb|-------------------------------------------------|
Db|--3--3--3--3--3--3--3--3--3--3--3--3--5-----5----|
Ab|--3--3--3--3--3--3--3--3--3--3--3--3--5-----5----|
Db|--3--3--3--3--3--3--3--3--3--3--3--3--5-----5----|
  |
  |GTR III
Gb|-------------------------------------------------|
Db|-------------------------------------------------|
Ab|-------------------------------------------------|
Db|--3--3--3--3--3--3--3--3--3--3--3--3--5-----5----|

   GTR I,II
eb|-------------------------------------------------|
Bb|-------------------------------------------------|
Gb|--------------------------------------3-----3----|
Db|--0--0--0--0--0--0--0--0--0--0--0--0--3-----3----|
Ab|--0--0--0--0--0--0--0--0--0--0--0--0--1-----1----|
Db|--0--0--0--0--0--0--0--0--0--0--0--0-------------|
  |
  |GTR III
Gb|-------------------------------------------------|
Db|-------------------------------------------------|
Ab|--------------------------------------1-----1----|
Db|--0--0--0--0--0--0--0--0--0--0--0--0-------------|

   GTR I,II
eb|-------------------------------------------------|
Bb|-------------------------------------------------|
Gb|-------------------------------------------------|
Db|--3--3--3--3--3--3--3--3--3--3--3--3--5-----5----|
Ab|--3--3--3--3--3--3--3--3--3--3--3--3--5-----5----|
Db|--3--3--3--3--3--3--3--3--3--3--3--3--5-----5----|
  |
  |GTR III
Gb|-------------------------------------------------|
Db|-------------------------------------------------|
Ab|-------------------------------------------------|
Db|--3--3--3--3--3--3--3--3--3--3--3--3--5-----5----|

   GTR I,II
eb|-------------------------------------------------|
Bb|-------------------------------------------------|
Gb|--------------------------------------3-----3----|
Db|--0--0--0--0--0--0--0--0--0--0--0--0--3-----3----|
Ab|--0--0--0--0--0--0--0--0--0--0--0--0--1-----1----|
Db|--0--0--0--0--0--0--0--0--0--0--0--0-------------|
  |
  |GTR III
Gb|-------------------------------------------------|
Db|-------------------------------------------------|
Ab|--------------------------------------1-----1----|
Db|--0--0--0--0--0--0--0--0--0--0--0--0-------------|

   GTR I,II
eb|-------------------------------------------------|
Bb|-------------------------------------------------|
Gb|-------------------------------------------------|
Db|--3--3--3--3--3--3--3--3--3--3--3--3--5-----5----|
Ab|--3--3--3--3--3--3--3--3--3--3--3--3--5-----5----|
Db|--3--3--3--3--3--3--3--3--3--3--3--3--5-----5----|
  |
  |GTR III
Gb|-------------------------------------------------|
Db|-------------------------------------------------|
Ab|-------------------------------------------------|
Db|--3--3--3--3--3--3--3--3--3--3--3--3--5-----5----|

Outro

   GTR I,II
eb|-------------------------------------------------|
Bb|-------------------------------------------------|
Gb|--------------------------------------3-----3----|
Db|--0--0--0--0--0--0--0--0--0--0--0--0--3-----3----|
Ab|--0--0--0--0--0--0--0--0--0--0--0--0--1-----1----|
Db|--0--0--0--0--0--0--0--0--0--0--0--0-------------|
  |
  |GTR III
Gb|-------------------------------------------------|
Db|-------------------------------------------------|
Ab|--------------------------------------1-----1----|
Db|--0--0--0--0--0--0--0--0--0--0--0--0-------------|

   GTR I,II
eb|-------------------------------------------------|
Bb|-------------------------------------------------|
Gb|-------------------------------------------------|
Db|--3--3--3--3--3--3--3--3--3--3--3--3--5-----5----|
Ab|--3--3--3--3--3--3--3--3--3--3--3--3--5-----5----|
Db|--3--3--3--3--3--3--3--3--3--3--3--3--5-----5----|
  |
  |GTR III
Gb|-------------------------------------------------|
Db|-------------------------------------------------|
Ab|-------------------------------------------------|
Db|--3--3--3--3--3--3--3--3--3--3--3--3--5-----5----|

   GTR I,II
eb|-------------------------------------------------|
Bb|-------------------------------------------------|
Gb|--------------------------------------3-----3----|
Db|--0--0--0--0--0--0--0--0--0--0--0--0--3-----3----|
Ab|--0--0--0--0--0--0--0--0--0--0--0--0--1-----1----|
Db|--0--0--0--0--0--0--0--0--0--0--0--0-------------|
  |
  |GTR III
Gb|-------------------------------------------------|
Db|-------------------------------------------------|
Ab|--------------------------------------1-----1----|
Db|--0--0--0--0--0--0--0--0--0--0--0--0-------------|

   GTR I,II
eb|-------------------------------------------------|
Bb|-------------------------------------------------|
Gb|-------------------------------------------------|
Db|--3--3--3--3--3--3--3--3--3--3--3--3--5-----5--5-|
Ab|--3--3--3--3--3--3--3--3--3--3--3--3--5-----5--5-|
Db|--3--3--3--3--3--3--3--3--3--3--3--3--5-----5--5-|
  |
  |GTR III
Gb|-------------------------------------------------|
Db|-------------------------------------------------|
Ab|-------------------------------------------------|
Db|--3--3--3--3--3--3--3--3--3--3--3--3--5-----5--5-|

   GTR I,II
eb|-------------------------------------------------|
Bb|-------------------------------------------------|
Gb|-------------------------------------------------|
Db|--0----------------------------------------------|
Ab|--0----------------------------------------------|
Db|--0----------------------------------------------|
  |
  |GTR III
Gb|-------------------------------------------------|
Db|-------------------------------------------------|
Ab|-------------------------------------------------|
Db|--0----------------------------------------------|


| b  bend
| r  release bend
|trp triplet
|PH. pinch harmonic
|fbk feedback
| .  palm-mute
| /  slide up
| \  slide down
| h  hammer-on
| p  pull-off
| ~  vibrato
|(7) harmonic
| x  Mute note
===============================================================================

            
            
Suggest correction
Creating personal tab
Creating personal tab
You can edit any tab online and save it as your Personal.

You can edit, replace or remove any tab part or add personal notes – all changes will be seen only by you.

Personal tabs can be accessed anytime from any device, even offline.
Learn more »
Give kudos to tab author, rate the tab!
1 2 3 4 5
comments
print report bad tab
guest
You may want to rate the tab now too:
select rating
Wanna post a correction for this tab? Suggest correction