Oops, an error
Loading. Please wait.

My Pal Tab

by God
1,794 views 9 this week
1 commentread comment
1 2 3 4 5
1 last vote to show rating
add to favorites
launch autoscroll
font size
0
reset
how to read this tab
guitar tuner
Autoscroll
slow
fast
+/-
esc
set tempo
stop
Difficulty
Tuning
novice
E A D G B E
e|-------------------|-----------------|-------------------|-----------------|
B|-------------------|-----------------|-------------------|-----------------|
G|-----12-----10-----|-9-----5-----5h7-|-----12-----10-----|-9-----5-----7---|
D|-0--------0------0-|-----0-----0-----|-0--------0------0-|-----0-----0-----|
A|-------------------|-----------------|-------------------|-----------------|
E|-------------------|-----------------|-------------------|-----------------|


********************

| h  Hammer-on

********************

THEN JUST REPEAT THAT AND THAT'S PRETTY MUCH THE SONG (:
Suggest correction
Give kudos to tab author, rate the tab!
1 2 3 4 5
comments
print report bad tab
1 comment total.
0 reply
Koeryn 33 Oct 17, 2010 09:41 AM

e|---------------------------------------------------------------------|
B|---------------------------------------------------------------------|
G|-----12--10--9--5--5/7-------------------------------------------------|
D|----0--0---0--0--0---------------------------------------------------|
A|---------------------------------------------------------------------|
E|---------------------------------------------------------------------|

Also, if you add some powerchords in there, it adds some flavor to it.

guest
You may want to rate the tab now too:
select rating
Wanna post a correction for this tab? Suggest correction