Oops, an error
Loading. Please wait.

My Pal Tab

version 1
version 1

Intro

Whole song

by God
1,605 views 3 this week
1 commentread comment
1 2 3 4 5
please rate
add to favorites
launch autoscroll
font size
0
reset
how to read this tab
guitar tuner
Autoscroll
slow
fast
+/-
esc
set tempo
stop
Help us to improve Ultimate-Guitar.com Take our survey!
×
Difficulty
novice
e|---------------------------------------------------------------------|
B|---------------------------------------------------------------------|
G|-----12--10--9--5--7-------------------------------------------------|
D|----0--0---0--0--0---------------------------------------------------|
A|---------------------------------------------------------------------|
E|---------------------------------------------------------------------|

THEN JUST REPEAT THAT AND THATS PRETTY MUCH THE SONG (:
Suggest correction
Give kudos to tab author, rate the tab!
1 2 3 4 5
comments
print report bad tab
1 comment total.
0 reply
Koeryn 33 wrote on October 17 2010, 01:41 pm

e|---------------------------------------------------------------------|
B|---------------------------------------------------------------------|
G|-----12--10--9--5--5/7-------------------------------------------------|
D|----0--0---0--0--0---------------------------------------------------|
A|---------------------------------------------------------------------|
E|---------------------------------------------------------------------|

Also, if you add some powerchords in there, it adds some flavor to it.

guest
You may want to rate the tab now too:
select rating
Please do not post tabs as comments. Select "correction" instead!