Oops, an error
Loading. Please wait.

Dead To Me tab

118 views 1 this week
no commentswrite comment
1 2 3 4 5
3 more votes to show rating
add to favorites
×
Save as Personal and add changes to this tab that will be seen only by you. Learn more ›
×
You can save this tab as Personal to edit and correct it or add notes. All changes will be seen only by you. Learn more »
launch autoscroll
font size
0
reset
how to read this tab
guitar tuner
edit
Autoscroll
slow
fast
+/-
esc
set tempo
stop
[Intro]

e|-----------------------------3----3--3-----2----3--2-----------------------|
B|-2----2--2-----1----1--1-----3----3--3-----3----3--3--0--------------------|
G|-2----2--2--0--2----2--2--0--0----0--0--0--2----2--2--0--------------------|
D|-2----2--2--0--1----1--1--0--0----0--0--0--0----0--0--0--------------------|
A|-0----0--0--0--0----0--0--0------------------------------------------------|
E|-----------------------------3----3--3-------------------------------------|

e|-----------------------------3----3--3-----2----3--2-----------------------|
B|-2----2--2-----1----1--1-----3----3--3-----3----3--3--0--------------------|
G|-2----2--2--0--2----2--2--0--0----0--0--0--2----2--2--0--------------------|
D|-2----2--2--0--1----1--1--0--0----0--0--0--0----0--0--0--------------------|
A|-0----0--0--0--0----0--0--0------------------------------------------------|
E|-----------------------------3----3--3-------------------------------------|

e|---------------------------------------------------------------------------|
B|---------------------------------------------------------------------------|
G|-6---6--6--6-----5---5--5--5-----4---4--4--4-----9---9--9--9---------------|
D|-7---7--7--7-----6---6--6--6-----2---2--2--2----10--10-10-10---------------|
A|-7---7--7--7-----6---6--6--6-----2---2--2--2----10--10-10-10---------------|
E|-5---5--5--5--4--4---4--4--4--0--0---0--0--0--0--8---8--8--8--5------------|

e|---------------------------------------------------------------------------|
B|---------------------------------------------------------------------------|
G|-6---6--6--6-----5---5--5--5-----9---9--9--9----13--13-13-13-13------------|
D|-7---7--7--7-----6---6--6--6----10--10-10-10----14--14-14-14-14------------|
A|-7---7--7--7-----6---6--6--6----10--10-10-10----14--14-14-14-14------------|
E|-5---5--5--5--4--4---4--4--4--8--8---8--8--8-12-12--12-12-12-12------------|


[Verse]

e|-----------------------------3----3--3-----2----3--2-----------------------|
B|-2----2--2-----1----1--1-----3----3--3-----3----3--3--0--------------------|
G|-2----2--2--0--2----2--2--0--0----0--0--0--2----2--2--0--------------------|
D|-2----2--2--0--1----1--1--0--0----0--0--0--0----0--0--0--------------------|
A|-0----0--0--0--0----0--0--0------------------------------------------------|
E|-----------------------------3----3--3-------------------------------------|

e|-----------------------------3----3--3-----2----3--2-----------------------|
B|-2----2--2-----1----1--1-----3----3--3-----3----3--3--0--------------------|
G|-2----2--2--0--2----2--2--0--0----0--0--0--2----2--2--0--------------------|
D|-2----2--2--0--1----1--1--0--0----0--0--0--0----0--0--0--------------------|
A|-0----0--0--0--0----0--0--0------------------------------------------------|
E|-----------------------------3----3--3-------------------------------------|

  |..PM............................................|
e|-------------------------3-3-3-3-3-3-------3-2-----------------------------|
B|-2-2-2-2-2-2-1-1-1-1-1-1-3-3-3-3-3-3-3-3-3-3-3-3---------------------------|
G|-2-2-2-2-2-2-2-2-2-2-2-2-0-0-0-0-0-0-2-2-2-2-2-2---------------------------|
D|-2-2-2-2-2-2-1-1-1-1-1-1-0-0-0-0-0-0-0-0-0-0-0-0---------------------------|
A|-0-0-0-0-0-0-0-0-0-0-0-0---------------------------------------------------|
E|-------------------------3-3-3-3-3-3---------------------------------------|

  |..PM..............................|
e|-------------------------3-3-3-3-3-3-2-------------------------------------|
B|-2-2-2-2-2-2-1-1-1-1-1-1-3-3-3-3-3-3-3-------------------------------------|
G|-2-2-2-2-2-2-2-2-2-2-2-2-0-0-0-0-0-0-2-------------------------------------|
D|-2-2-2-2-2-2-1-1-1-1-1-1-0-0-0-0-0-0-0-------------------------------------|
A|-0-0-0-0-0-0-0-0-0-0-0-0---------------------------------------------------|
E|-------------------------3-3-3-3-3-3---------------------------------------|


[Chorus]

e|---------------------------------------------------------------------------|
B|---------------------------------------------------------------------------|
G|-6---6--6--6-----5---5--5--5-----4---4--4--4-----9---9--9--9---------------|
D|-7---7--7--7-----6---6--6--6-----2---2--2--2----10--10-10-10---------------|
A|-7---7--7--7-----6---6--6--6-----2---2--2--2----10--10-10-10---------------|
E|-5---5--5--5--4--4---4--4--4--0--0---0--0--0--0--8---8--8--8--5------------|

e|---------------------------------------------------------------------------|
B|---------------------------------------------------------------------------|
G|-6---6--6--6-----5---5--5--5-----9---9--9--9----13--13-13-13-13------------|
D|-7---7--7--7-----6---6--6--6----10--10-10-10----14--14-14-14-14------------|
A|-7---7--7--7-----6---6--6--6----10--10-10-10----14--14-14-14-14------------|
E|-5---5--5--5--4--4---4--4--4--8--8---8--8--8-12-12--12-12-12-12------------|

e|---------------------------------------------------------------------------|
B|---------------------------------------------------------------------------|
G|-6---6--6--6-----5---5--5--5-----4---4--4--4-----9---9--9--9---------------|
D|-7---7--7--7-----6---6--6--6-----2---2--2--2----10--10-10-10---------------|
A|-7---7--7--7-----6---6--6--6-----2---2--2--2----10--10-10-10---------------|
E|-5---5--5--5--4--4---4--4--4--0--0---0--0--0--0--8---8--8--8--5------------|

e|---------------------------------------------------------------------------|
B|---------------------------------------------------------------------------|
G|-6---6--6--6-----5---5--5--5-----9---9--9--9--9---9--9--9------------------|
D|-7---7--7--7-----6---6--6--6----10--10-10-10-10--10-10-10------------------|
A|-7---7--7--7-----6---6--6--6----10--10-10-10-10--10-10-10------------------|
E|-5---5--5--5--4--4---4--4--4--8--8---8--8--8--8---8--8--8------------------|


[Verse]

e|-----------------------------3----3--3-----2----3--2-----------------------|
B|-2----2--2-----1----1--1-----3----3--3-----3----3--3--0--------------------|
G|-2----2--2--0--2----2--2--0--0----0--0--0--2----2--2--0--------------------|
D|-2----2--2--0--1----1--1--0--0----0--0--0--0----0--0--0--------------------|
A|-0----0--0--0--0----0--0--0------------------------------------------------|
E|-----------------------------3----3--3-------------------------------------|

e|-----------------------------3----3--3-----2----3--2-----------------------|
B|-2----2--2-----1----1--1-----3----3--3-----3----3--3--0--------------------|
G|-2----2--2--0--2----2--2--0--0----0--0--0--2----2--2--0--------------------|
D|-2----2--2--0--1----1--1--0--0----0--0--0--0----0--0--0--------------------|
A|-0----0--0--0--0----0--0--0------------------------------------------------|
E|-----------------------------3----3--3-------------------------------------|

  |..PM............................................|
e|-------------------------3-3-3-3-3-3-------3-2-----------------------------|
B|-2-2-2-2-2-2-1-1-1-1-1-1-3-3-3-3-3-3-3-3-3-3-3-3---------------------------|
G|-2-2-2-2-2-2-2-2-2-2-2-2-0-0-0-0-0-0-2-2-2-2-2-2---------------------------|
D|-2-2-2-2-2-2-1-1-1-1-1-1-0-0-0-0-0-0-0-0-0-0-0-0---------------------------|
A|-0-0-0-0-0-0-0-0-0-0-0-0---------------------------------------------------|
E|-------------------------3-3-3-3-3-3---------------------------------------|

  |..PM..............................|
e|-------------------------3-3-3-3-3-3-2-------------------------------------|
B|-2-2-2-2-2-2-1-1-1-1-1-1-3-3-3-3-3-3-3-------------------------------------|
G|-2-2-2-2-2-2-2-2-2-2-2-2-0-0-0-0-0-0-2-------------------------------------|
D|-2-2-2-2-2-2-1-1-1-1-1-1-0-0-0-0-0-0-0-------------------------------------|
A|-0-0-0-0-0-0-0-0-0-0-0-0---------------------------------------------------|
E|-------------------------3-3-3-3-3-3---------------------------------------|


[Chorus]

e|---------------------------------------------------------------------------|
B|---------------------------------------------------------------------------|
G|-6---6--6--6-----5---5--5--5-----4---4--4--4-----9---9--9--9---------------|
D|-7---7--7--7-----6---6--6--6-----2---2--2--2----10--10-10-10---------------|
A|-7---7--7--7-----6---6--6--6-----2---2--2--2----10--10-10-10---------------|
E|-5---5--5--5--4--4---4--4--4--0--0---0--0--0--0--8---8--8--8--5------------|

e|---------------------------------------------------------------------------|
B|---------------------------------------------------------------------------|
G|-6---6--6--6-----5---5--5--5-----9---9--9--9----13--13-13-13-13------------|
D|-7---7--7--7-----6---6--6--6----10--10-10-10----14--14-14-14-14------------|
A|-7---7--7--7-----6---6--6--6----10--10-10-10----14--14-14-14-14------------|
E|-5---5--5--5--4--4---4--4--4--8--8---8--8--8-12-12--12-12-12-12------------|

e|---------------------------------------------------------------------------|
B|---------------------------------------------------------------------------|
G|-6---6--6--6-----5---5--5--5-----4---4--4--4-----9---9--9--9---------------|
D|-7---7--7--7-----6---6--6--6-----2---2--2--2----10--10-10-10---------------|
A|-7---7--7--7-----6---6--6--6-----2---2--2--2----10--10-10-10---------------|
E|-5---5--5--5--4--4---4--4--4--0--0---0--0--0--0--8---8--8--8--5------------|

e|---------------------------------------------------------------------------|
B|---------------------------------------------------------------------------|
G|-6---6--6--6-----5---5--5--5-----9---9--9--9--9---9--9--9------------------|
D|-7---7--7--7-----6---6--6--6----10--10-10-10-10--10-10-10------------------|
A|-7---7--7--7-----6---6--6--6----10--10-10-10-10--10-10-10------------------|
E|-5---5--5--5--4--4---4--4--4--8--8---8--8--8--8---8--8--8------------------|


[Bridge]

e|---------------------------------------------------------------------------|
B|---------------------------------------------------------------------------|
G|---------------------------------------------------------------------------|
D|---------------------------------------------------------------------------|
A|-----------6--3------------5--2------------9--6------------2---------------|
E|-5---5--5--------4---4--4--------8---8--8--------0---0--0-----3------------|

e|---------------------------------------------------------------------------|
B|---------------------------------------------------------------------------|
G|---------------------------------------------------------------------------|
D|---------------------------------------------------------------------------|
A|-----------6--3------------5--2------------9--6------------9--6------------|
E|-5---5--5--------4---4--4--------8---8--8--------8---8--8------------------| 

e|---------------------------------------------------------------------------|
B|---------------------------------------------------------------------------|
G|---------------------------------------------------------------------------|
D|---------------------------------------------------------------------------|
A|-----------6--3------------5--2------------9--6------------2---------------|
E|-5---5--5--------4---4--4--------8---8--8--------0---0--0-----3------------|

e|---------------------------------------------------------------------------|
B|---------------------------------------------------------------------------|
G|---------------------------------------------------------------------------|
D|---------------------------------------------------------------------------|
A|-----------6--3------------5--2------------9--6------------9--6------------|
E|-5---5--5--------4---4--4--------8---8--8--------8---8--8------------------| 


[Verse]

e|-----------------------------3----3--3-----2----3--2-----------------------|
B|-2----2--2-----1----1--1-----3----3--3-----3----3--3--0--------------------|
G|-2----2--2--0--2----2--2--0--0----0--0--0--2----2--2--0--------------------|
D|-2----2--2--0--1----1--1--0--0----0--0--0--0----0--0--0--------------------|
A|-0----0--0--0--0----0--0--0------------------------------------------------|
E|-----------------------------3----3--3-------------------------------------|

e|-----------------------------3----3--3-----2----3--2-----------------------|
B|-2----2--2-----1----1--1-----3----3--3-----3----3--3--0--------------------|
G|-2----2--2--0--2----2--2--0--0----0--0--0--2----2--2--0--------------------|
D|-2----2--2--0--1----1--1--0--0----0--0--0--0----0--0--0--------------------|
A|-0----0--0--0--0----0--0--0------------------------------------------------|
E|-----------------------------3----3--3-------------------------------------|

  |..PM............................................|
e|-------------------------3-3-3-3-3-3-------3-2-----------------------------|
B|-2-2-2-2-2-2-1-1-1-1-1-1-3-3-3-3-3-3-3-3-3-3-3-3---------------------------|
G|-2-2-2-2-2-2-2-2-2-2-2-2-0-0-0-0-0-0-2-2-2-2-2-2---------------------------|
D|-2-2-2-2-2-2-1-1-1-1-1-1-0-0-0-0-0-0-0-0-0-0-0-0---------------------------|
A|-0-0-0-0-0-0-0-0-0-0-0-0---------------------------------------------------|
E|-------------------------3-3-3-3-3-3---------------------------------------|

  |..PM..............................|
e|-------------------------3-3-3-3-3-3-2-------------------------------------|
B|-2-2-2-2-2-2-1-1-1-1-1-1-3-3-3-3-3-3-3-------------------------------------|
G|-2-2-2-2-2-2-2-2-2-2-2-2-0-0-0-0-0-0-2-------------------------------------|
D|-2-2-2-2-2-2-1-1-1-1-1-1-0-0-0-0-0-0-0-------------------------------------|
A|-0-0-0-0-0-0-0-0-0-0-0-0---------------------------------------------------|
E|-------------------------3-3-3-3-3-3---------------------------------------|


[Chorus]

e|---------------------------------------------------------------------------|
B|---------------------------------------------------------------------------|
G|-6---6--6--6-----5---5--5--5-----4---4--4--4-----9---9--9--9---------------|
D|-7---7--7--7-----6---6--6--6-----2---2--2--2----10--10-10-10---------------|
A|-7---7--7--7-----6---6--6--6-----2---2--2--2----10--10-10-10---------------|
E|-5---5--5--5--4--4---4--4--4--0--0---0--0--0--0--8---8--8--8--5------------|

e|---------------------------------------------------------------------------|
B|---------------------------------------------------------------------------|
G|-6---6--6--6-----5---5--5--5-----9---9--9--9----13--13-13-13-13------------|
D|-7---7--7--7-----6---6--6--6----10--10-10-10----14--14-14-14-14------------|
A|-7---7--7--7-----6---6--6--6----10--10-10-10----14--14-14-14-14------------|
E|-5---5--5--5--4--4---4--4--4--8--8---8--8--8-12-12--12-12-12-12------------|

e|---------------------------------------------------------------------------|
B|---------------------------------------------------------------------------|
G|-6---6--6--6-----5---5--5--5-----4---4--4--4-----9---9--9--9---------------|
D|-7---7--7--7-----6---6--6--6-----2---2--2--2----10--10-10-10---------------|
A|-7---7--7--7-----6---6--6--6-----2---2--2--2----10--10-10-10---------------|
E|-5---5--5--5--4--4---4--4--4--0--0---0--0--0--0--8---8--8--8--5------------|

e|---------------------------------------------------------------------------|
B|---------------------------------------------------------------------------|
G|-6---6--6--6-----5---5--5--5-----9---9--9--9--9---9--9--9------------------|
D|-7---7--7--7-----6---6--6--6----10--10-10-10-10--10-10-10------------------|
A|-7---7--7--7-----6---6--6--6----10--10-10-10-10--10-10-10------------------|
E|-5---5--5--5--4--4---4--4--4--8--8---8--8--8--8---8--8--8------------------|


[Outro]

e|---------------------------------------------------------------------------|
B|---------------------------------------------------------------------------|
G|---------------------------------------------------------------------------|
D|---------------------------------------------------------------------------|
A|-----------6--3------------5--2------------9--6------------2---------------|
E|-5---5--5--------4---4--4--------8---8--8--------0---0--0-----3------------|

e|---------------------------------------------------------------------------|
B|---------------------------------------------------------------------------|
G|---------------------------------------------------------------------------|
D|---------------------------------------------------------------------------|
A|-----------6--3------------5--2------------9--6------------9--6------------|
E|-5---5--5--------4---4--4--------8---8--8--------8---8--8------------------| 


e|---------------------------------------------------------------------------|
B|---------------------------------------------------------------------------|
G|---------------------------------------------------------------------------|
D|---------------------------------------------------------------------------|
A|-----------6--3------------5--2------------9--6------------2---------------|
E|-5---5--5--------4---4--4--------8---8--8--------0---0--0-----3------------|

e|---------------------------------------------------------------------------|
B|-----------------------------------------------------------------2\--------|
G|-----------------------------------------------------------------2\--------|
D|-----------------------------------------------------------------2\--------|
A|-----------6--3------------5--2------------9--6------------9--6--0---------|
E|-5---5--5--------4---4--4--------8---8--8--------8---8--8------------------| 

 

************************************

| \  Slide down

************************************

            
            
Suggest correction
Creating personal tab
Creating personal tab
You can edit any tab online and save it as your Personal.

You can edit, replace or remove any tab part or add personal notes – all changes will be seen only by you.

Personal tabs can be accessed anytime from any device, even offline.
Learn more »
Give kudos to tab author, rate the tab!
1 2 3 4 5
comments
print report bad tab
guest
You may want to rate the tab now too:
select rating
Wanna post a correction for this tab? Suggest correction