Oops, an error
Loading. Please wait.

Sunny Banks Of Sweet Deliverance tab

88 views 3 this week
2 commentsread comments
1 2 3 4 5
1 last vote to show rating
add to favorites
×
Save as Personal and add changes to this tab that will be seen only by you. Learn more ›
×
You can save this tab as Personal to edit and correct it or add notes. All changes will be seen only by you. Learn more »
launch autoscroll
font size
0
reset
how to read this tab
guitar tuner
edit
Autoscroll
slow
fast
+/-
esc
set tempo
stop
Author
Difficulty
About this tab version
Guitar tab for the whole song. Was this info helpful? Yes No
[Part 1]

e||----0----0----0---|---7----7--5----|-----5----5/7-----7\-|---0----0----0----------|
B||o-----3----3----3-|----------------|---5----5-------5----|-----3----3----3--------|
G||------------------|-----0-------0--|---------------------|------------------------|
D||--2-----2----2----|-5-----5--5---0-|-0-----0------0------|------------------------|
A||o-----------------|----------------|---------------------|-3-----3----3-----------|
E||------------------|----------------|---------------------|------------------------|
                                                              _____________________   ____________________
                                                             |1.+2.               x3 |3.
e|---0----0-----0---|---0----0-----0-----|---0----0----0-----|---0----0----0-------||---0----0----0-------|
B|-----3----3-----3-|-----7----7-----3/5-|-----5----5----5\3-|-----3----3----3----o||-----3----3/5--5-5\3-|
G|------------------|--------------------|-------------------|---------------------||---------------------|
D|-2-----2----2-----|-0-----0----0-------|-------------------|---------------------||---------------------|
A|------------------|--------------------|-4-----4----4------|-3-----3----3-------o||-3-----3-------------|
E|------------------|--------------------|-------------------|---------------------||---------------------|

[Part 2]

e|-----------------|----------------|------------------------|------------------|
B|-----------------|----------------|------------------------|------------------|
G|-9-9-9-9-9-9-9-9\|5-5-5-5-5-5-5-5/|12-12-12-12-12-12-12-12\|5-5-5-5-5-5-5-5---|
D|-9-9-9-9-9-9-9-9\|5-5-5-5-5-5-5-5/|12-12-12-12-12-12-12-10\|5-5-5-5-5-5-5-5---|
A|-7-7-7-7-7-7-7-7\|3-3-3-3-3-3-3-3/|10-10-10-10-10-10-10-10\|3-3-3-3-3-3-3-3---|
E|-----------------|----------------|------------------------|------------------|
                                                              PM  PM
e|-----------------|----------------|----------------|-------------------|
B|-----------------|----------------|----------------|-------------------|
G|-9-9-9-9-9-9-9-9\|5-5-5-5-5-5-5-5/|7-7-7-7-7-7-7-7/|9-9-9-9-5-5-5-5-5--|
D|-9-9-9-9-9-9-9-9\|5-5-5-5-5-5-5-5/|7-7-7-7-7-7-7-7/|9-9-9-9-5-5-5-5-5--|
A|-7-7-7-7-7-7-7-7\|3-3-3-3-3-3-3-3/|5-5-5-5-5-5-5-5/|7-7-7-7-3-3-3-3-3--|
E|-----------------|----------------|----------------|-------------------|

Play this twice.

[Part 1]

Silence for 4 bars.

Play with E-Bow
e|----|---|---|---|
B|----|---|---|---|
G|-0__|h2_|/4_|___|
D|----|---|---|---|
A|----|---|---|---|
E|----|---|---|---|

e|---0----0----0---|---7----7--5----|-----5----5/7-----7\-|---0----0----0----------|
B|-----3----3----3-|----------------|---5----5-------5----|-----3----3----3--------|
G|-----------------|-----0-------0--|---------------------|------------------------|
D|-2-----2----2----|-5-----5--5---0-|-0-----0------0------|------------------------|
A|-----------------|----------------|---------------------|-3-----3----3-----------|
E|-----------------|----------------|---------------------|------------------------|
                                                                                                
e|---0----0-----0---|---0----0-----0-----|---0----0----0-----|---0----0----0-------|
B|-----3----3-----3-|-----7----7-----3/5-|-----5----5----5\3-|-----3----3/5--5-5\3-|
G|------------------|--------------------|-------------------|---------------------|
D|-2-----2----2-----|-0-----0----0-------|-------------------|---------------------|
A|------------------|--------------------|-4-----4----4------|-3-----3-------------|
E|------------------|--------------------|-------------------|---------------------|

[Part 2]

e|-----------------|----------------|------------------------|------------------|
B|-----------------|----------------|------------------------|------------------|
G|-9-9-9-9-9-9-9-9\|5-5-5-5-5-5-5-5/|12-12-12-12-12-12-12-12\|5-5-5-5-5-5-5-5---|
D|-9-9-9-9-9-9-9-9\|5-5-5-5-5-5-5-5/|12-12-12-12-12-12-12-10\|5-5-5-5-5-5-5-5---|
A|-7-7-7-7-7-7-7-7\|3-3-3-3-3-3-3-3/|10-10-10-10-10-10-10-10\|3-3-3-3-3-3-3-3---|
E|-----------------|----------------|------------------------|------------------|
                                                              PM  PM
e|-----------------|----------------|----------------|-------------------|
B|-----------------|----------------|----------------|-------------------|
G|-9-9-9-9-9-9-9-9\|5-5-5-5-5-5-5-5/|7-7-7-7-7-7-7-7/|9-9-9-9-5-5-5-5-5--|
D|-9-9-9-9-9-9-9-9\|5-5-5-5-5-5-5-5/|7-7-7-7-7-7-7-7/|9-9-9-9-5-5-5-5-5--|
A|-7-7-7-7-7-7-7-7\|3-3-3-3-3-3-3-3/|5-5-5-5-5-5-5-5/|7-7-7-7-3-3-3-3-3--|
E|-----------------|----------------|----------------|-------------------|

Play this three times.

On the third time this part joins in:

  Play very fast across the whole bars.                     Single note
e|-12---\|10-----\|3-----/|7----/|12--/|14---/|17---/|19---|-----------------|
B|-------|--------|-------|------|-----|------|------|-----|-----------------|
G|-9----\|7------\|0-----/|4----/|9---/|11---/|14---/|16--\|9----------------|
D|-------|--------|-------|------|-----|------|------|-----|-----------------|
A|-------|--------|-------|------|-----|------|------|-----|-----------------|
E|-------|--------|-------|------|-----|------|------|-----|-----------------|

On the last bar starts this part:

e||--------7-------|-------7-------|-------7-------|-------7--------|
B||o-----8-----8---|-----7-----7---|-----8-----8---|-----8-----8----|
G||----9-----9---9-|---9-----9---9-|---9-----9---9-|---7-----7---7--|
D||----------------|---------------|-0-------------|----------------|
A||o-7-------------|-7-------------|---------------|----------------|
E||----------------|---------------|---------------|-8--------------|
                                                  ________________  _______________
                                                 |1.               |2.
e|-------7-------|-------7-------|-------7-------|-------7--------||-------7------|
B|-----8-----8---|-----8-----8---|-----7-----7---|-----8-----8---o||-----8--------|
G|---7-----7---7-|---9-----9---9-|---9-----9---9-|---9-----9---7--||---9----------|
D|---------------|---------------|-0-------------|----------------||--------------|
A|---------------|---------------|---------------|-7-------------o||-7------------|
E|-7-------------|-8-------------|---------------|----------------||--------------|


************************************

| h   Hammer-on
| p   Pull-off
| /   Slide up
| \   Slide down
| PM  Palm mute

************************************

            
            
Suggest correction
Creating personal tab
Creating personal tab
You can edit any tab online and save it as your Personal.

You can edit, replace or remove any tab part or add personal notes – all changes will be seen only by you.

Personal tabs can be accessed anytime from any device, even offline.
Learn more »
Give kudos to tab author, rate the tab!
1 2 3 4 5
comments
print report bad tab
2 comments total.
0 reply
Noctie 20 Mar 25, 2017 01:19 PM, edited at 05:20 pm

Been looking for this tab for many years, thank you so much! If you could tab more God Is An Astronaut songs that have not been tabbed yet it would be amazing. Thanks!

0 reply
selkayann 5,559 Mar 25, 2017 01:27 PM

You can submit a request and send me a message about it, and I'll tab it out!

guest
You may want to rate the tab now too:
select rating
Wanna post a correction for this tab? Suggest correction