Oops, an error
Loading. Please wait.

The Hunter Tab

version 2
version 2

Whole song

329 views 1 this week
no commentswrite comment
1 2 3 4 5
please rate
add to favorites
launch autoscroll
font size
0
reset
how to read this tab
guitar tuner
Tab Pro tools
  • play this tab
  • loop segment
  • change instrument
  • show fretboard
  • metronome
×
Best way to learn
"The Hunter"
Autoscroll
slow
fast
+/-
esc
set tempo
stop
Song:     "The Hunter"
Artist:    The God Machine
Album:    "One Last Laugh in a Place of Dying"

Tabbed by: Phillip Adrian Trujeque 
Guitarist for Butcher

http://www.ButcherBand.com
http://www.MySpace.com/ButcherBand
http://www.MySpace.com/ButcherBand

Any comments, questions, jokes, threats, suggestions, recipes, corrections, 
critiques, thoughts or concerns... Please feel free to email me 
Mail To: Phillip@Trujeque.com

************************************************************************
   BPM: 86
   6/4
   Intro: Riff A w/slight delay.
                                          Last time only.
  D(add9) D5    D sus4
E||0-----5-----|3-----5-----||           ||0-----5-----|3-----3-----|| Rpt
B||--3-----3---|--3-----3---||           ||--3-----3---|--3-----3---|| 2x's
G||----2-----2-|----2-----2-||           ||----2-----2-|----2-----2-||
D||------------|------------|| Rpt. 3x's ||------------|------------||
A||------------|------------||           ||------------|------------||
E||------------|------------||           ||------------|------------||

************************************************************************
  Vs.I 0:34  Riff B
   D(add9)
E||0-----0-----|0-----0-----|| Rpt. 8x's
B||--3-----3---|--3-----3---||
G||----2-----2-|----2-----2-||
D||------------|------------||
A||------------|------------||
E||------------|------------||

All things will eventually die 
And a true hunter weeps at a merciless killing 
But someone will always hurt you
But someone will always hurt you
************************************************************************
  Break
  D(add9) D5    D sus4
E||0-----5-----|3-----5-----||           ||0-----5-----|3-----3-----|| 
B||--3-----3---|--3-----3---||           ||--3-----3---|--3-----3---||
G||----2-----2-|----2-----2-||           ||----2-----2-|----2-----2-||
D||------------|------------|| Rpt. 3x's ||------------|------------||
A||------------|------------||           ||------------|------------||
E||------------|------------||           ||------------|------------||

************************************************************************
   D(add9)
E||0-----0-----|0-----0-----|| Rpt. 8x's
B||--3-----3---|--3-----3---||
G||----2-----2-|----2-----2-||
D||------------|------------||
A||------------|------------||
E||------------|------------||

You're selfish and you're conceited 
And the world's at your feet but because of your beauty 
Gestures are shallow...
Oh shallow... (repeat)

************************************************************************
   Gtr I @ 1:41
   Em7          Em7/9
E||----0-----0-|----2-----2-|| Rpt. 3x's
B||--3-----3---|--3-----3---||
G||4-----4-----|4-----4-----||
D||------------|------------||
A||------------|------------||
E||------------|------------||

   Gtr I (clean)
   Em7          Em7   Em7
E||----0-----0-|----2-----0-||
B||--3-----3---|--3-----3---||
G||4-----4-----|4-----4-----||
D||------------|------------||
A||------------|------------||
E||------------|------------||
 ||            |            ||
 ||            |            ||
 ||GtrII (slight overdrive) ||
E||------------|------------|| 
B||------------|------------||
G||------------|------------||
D||2-2-2-2-2-2-|2-2-2-2-2-2-||
A||------------|------------||
E||------------|------------||
   Crescendo <
************************************************************************
 @1:57
   Both guitars
  Aadd9  G     Cadd9  G      Em         (Em)
E||-----------|-------------|-----------|-------------|| Play 3x's
B||-----------|-------------|------0----|------0------||
G||----4-----0|----0------0-|----0---0--|----0---0----||
D||--2-----0--|--2------9---|--5-------5|--5-------5--||
A||0-----2----|3----/10-----|7----------|7-----------7||
E||-----------|-------------|-----------|-------------||
   "Oh..............................................."

  Aadd9  G     Cadd9  G      Em         (Em)   (no chord)
E||-----------|-------------|-----------|-------------||
B||-----------|-------------|------0----|-------------||
G||----4-----0|----0------0-|----0---0--|----0-(0)----||
D||--2-----0--|--0------9---|--5-------5|--5---(5)----|| pause
A||0-----2----|3----/10-----|7----------|7------8-----||
E||-----------|-------------|-----------|-------------||
   "Oh..............................................."
************************************************************************
   Bridge: (string section)

E||-----------|-------------|-----------|-------------||
B||-----565---|-------------|-----565---|------------5||
G||7--------7-|5------------|7--------7-|5------------||play 4x's
D||-----------|------7------|-----------|------7------||
A||-----------|-------------|-----------|-------------||
E||-----------|-------------|-----------|-------------||

************************************************************************
@3:19 Gtr I (clean)
   Em7          Em7   Em7
E||----0-----0-|----2-----0-||4x's
B||--3-----3---|--3-----3---||
G||4-----4-----|4-----4-----||
D||------------|------------||
A||------------|------------||
E||------------|------------||
 ||            |            ||
 ||            |            ||
 ||GtrII (Dist) w/feedback  ||
E||------------|------------|| 
B||------------|------------||
G||------------|------------||
D||2-2-2-2-2-2-|2-2-2-2-2-2-||
A||------------|------------||
E||------------|------------||
   Crescendo <
************************************************************************
 @3:35
   Both guitars
  Aadd9  G     Cadd9  G      Em          F#m/addG G
E||-----------|-------------|-----------|-------------||
B||-----------|-------------|------0----|-----------0-|| 4x's
G||----4-----0|----0------0-|----0---0--|----0--------||
D||--2-----0--|--2------9---|--5-------5|--0------9---||
A||0-----2----|3----/10-----|7----------|9-----10-----||
E||-----------|-------------|-----------|-------------||
"Oh what do you do......"

  Aadd9  G     Cadd9  G      Em         (no chord) Em
E||-----------|-------------|-----------|-------------||
B||-----------|-------------|------0----|-------------||
G||----4-----0|----0------0-|----0---0--|----0------0-||
D||--2-----0--|--0------9---|--5-------5|--0------5---||
A||0-----2----|3----/10-----|7----------|5-----7------||
E||-----------|-------------|-----------|-------------||
************************************************************************

   A5    B5    C5    G5      E5          F#    A
E||-----------|-------------|-----------|-------------||
B||-----------|-------------|-----------|-------------|| 2x's
G||2----------|-----/12----\|9----------|11----12-----||
D||2-----4----|5-----12-----|9----------|-------------||
A||0-----2----|3----/10----\|7----------|9-----10-----||
E||-----------|-------------|-----------|-------------||
 
   A5    B5    C5    G5      E5          D     E
E||-----------|-------------|-----------|-------------||
B||-----------|-------------|-----------|-------------|| 
G||2----------|-----/12----\|9----------|7-----9------||
D||2-----4----|5-----12-----|9----------|-------------||
A||0-----2----|3----/10----\|7----------|5-----7------||
E||-----------|-------------|-----------|-------------||
************************************************************************
   Outro 
   GtrI
   Em
E||-------------|-------------|-----------|-----------||
B||------0------|------0------|-----------|-----------||
G||----0---0----|----0---0----|---0-//----|---0-//----||
D||--5-------5--|--5-------5--|----//-0---|----//-0---||
A||7------------|7------------|-----------|-----------||
E||-------------|-------------|-----------|-----------||
 ||             |             |           |           ||
 ||GtrII        |             |           |           ||
E||-------------|-------------|-----------|-----------||
B||-------------|-------------|-----------|-----------||
G||9-9999-9-9999|9-9999-9-9-9-|---0-//----|---0-//----||
D||9-9999-9-9999|9-9999-8-8-8-|----//-0---|----//-0---||
A||7-7777-7-7777|7-7777-7-7-7-|-----------|-----------||
E||0-0000-0-0000|0-0000-0-0-0-|-----------|-----------||


   (Bass)                              (last time only)
E||-----------|-------------|-----------|-------------||
B||-----------|-------------|-----------|-------------||
G||-----------|-------------|-----------|----0--------||
D||-----------|-------------|-----------|--7----------||
A||-----------|-------------|-----------|9------------||
E||-----------|-------------|-----------|-------------||
Play Bridge Riff (fades w/strings)








comments
We did not receive enough feedback on this tab! Please rate:
print report bad tab
1 2 3 4 5
I want to post or [tab]
guest
You may want to rate the tab now too:
select rating
Please do not post tabs as comments. Select "correction" instead!