Oops, an error
Loading. Please wait.

Pretty Bad Boy Tab

633 views 1 this week
no commentswrite comment
1 2 3 4 5
please rate
add to favorites
launch autoscroll
font size
0
reset
how to read this tab
guitar tuner
Autoscroll
slow
fast
+/-
esc
set tempo
stop
Help us to improve Ultimate-Guitar.com Take our survey!
×
Author
Difficulty
intermediate
Pretty Bad Boy-Goddo
Awesome and easy song. I am just posting the lead parts.

Intro Lead
e|-----------------------------------3----------------------------------15|
B|--------------------------------------------------------------13br-12---|
G|----------5b-5-4------------5br-4-----------5b-5-4----------------------|
D|-------5---------5-------5----------------5--------5--------5-----------|
A|----3--------------5---3----------------3------------5----3-------------|
E|\-----------------------------------------------------------------------|


Chorus Leads
e|------------------------------------------------------------------------|
B|------------------------------------------------------------------------|
G|------------------------------------------------------------------------|
D|-----------------------------------------------------------------5------|
A|--------------------------\7-5---7-5--------------------------/7---7-5--|
E|-------------------------------7----------------------------------------|
 I'm just a pretty bad boy,           I'm just a pretty bad boy,

e|------------------------------------------------------------------------|
B|------------------------------------------------------------------------|
G|------------------------------------------------------------------------|
D|------------------------------------------------------------------------|
A|----------------------------------------------------7---br-5------------|
E|------------------------------------------------------------------------|
 Pretty bad boys need pretty bad, pretty girls too (there is a little delay
                                                    before the bend-release)

After the third chorus is the little part where a little boy repeats "I'm just a pretty 
boy" and after each line, there is a little guitar part. I am not sure if it is 
or normal notes but i will post both.

 Normal notes
e|----------------------------10-----------------------------------10--15-w|
B|-------------------------------------------------------------------------|
G|------------------------------12-w---------------------------------------|
D|-------------------------------------------------------------------------|
A|-------------------------------------------------------------------------|
E|-------------------------------------------------------------------------|
 I'm just a pretty bad boy...          I'm just a pretty bad boy...


e|-------------------10-------------------------------------------10-15-w--|
B|---------------------10--------------------------------------------------|
G|-----------------------12-w----------------------------------12----------|
D|-------------------------------------------------------------------------|
A|-------------------------------------------------------------------------|
E|-------------------------------------------------------------------------|
   .................                  I'm just a pretty bad boy


Harmonics
e|------------------------------------------------------------------------|
B|------------------------------------------------------------------------|
G|-------------------------Har7-Har12-w------------------------Har7-Har5-w|
D|------------------------------------------------------------------------|
A|------------------------------------------------------------------------|
E|------------------------------------------------------------------------|
  I'm just a pretty bad boy...          I'm just a pretty bad boy...


e|------------------------------------------------------------------------|
B|------------------------------------------------------------------------|
G|----------------Har7-Har12-w---------------------------Har12-Har7-Har5-w|
D|------------------Har7--------------------------------------------------|
A|------------------------------------------------------------------------|
E|------------------------------------------------------------------------|
    .................             I'm just a pretty bad boy


| Har Harmonic
| w  whammy bar
| r  release bend
| b  bend 1/2 step
| /  slide up
| \  slide down
| h  hammer-on
| p  pull-off
| ~  vibrato
| +  harmonic
| x  Mute note
============================================================================
Suggest correction
What's this?
You can suggest a correction to this tab. Community and Mods will review your correction and vote to approve or reject it.
comments
We did not receive enough feedback on this tab! Please rate:
print report bad tab
1 2 3 4 5
guest
You may want to rate the tab now too:
select rating
Please do not post tabs as comments. Select "correction" instead!