Oops, an error
Loading. Please wait.

1000Hp Bass Tab

version 1
version 1

Whole song

Interactive

3,509 views 12 this week
1 commentread comment
1 2 3 4 5
please rate
add to favorites
launch autoscroll
font size
0
reset
guitar tuner
Autoscroll
slow
fast
+/-
esc
set tempo
stop
Help us to improve Ultimate-Guitar.com Take our survey!
×
Contributor
Difficulty
Tuning
DR7777 161
intermediate
D A D G B E
-------------------------------------------------------------------------------
                             1000hp - Godsmack
-------------------------------------------------------------------------------
Tabbed by: Dane
E-mail: rdane@ymail.com

Tuning: D A D G

Intro 
G|--------(x3)----------------|----------------------|
D|----------------------------|----------------------|
A|----------------------------|----------------------|
D|-3-30000-00030-6-60000-00030|-3-30000-00030-6-60000|

Verse (x4)
G|---------------------------|
D|---------------------------|
A|---------------------------|
D|3-30000-00030-6-60000-00030|

Pre Chorus
G|----------------------------------------|
D|----------------------------/7-77-------|
A|----------------------------------------|
D|8-88-888-8-88-888-7-77-777--------875---|

Chorus 1
G|-----------------------------------------------------------------------|
D|--------------------------------------------------------------787------|
A|-----------------------------------------------------------------------|
D|-0-000000-3-333333-7888788878887888-0-000000-3-333333-78887888------875|

G|---------------------------------------------------------|
D|------------------7888788878887888-----------------------|
A|---------------------------------------------------------|
D|-0-000000-3-333333-----------------0-000000-3-333333-1~~-|

Interlude 
G|--------(x1)----------------|----------------------|
D|----------------------------|----------------------|
A|----------------------------|----------------------|
D|-3-30000-00030-6-60000-00030|-3-30000-00030-6-60000|

Verse (x4)
G|---------------------------|
D|---------------------------|
A|---------------------------|
D|3-30000-00030-6-60000-00030|

Pre Chorus
G|----------------------------------------|
D|----------------------------/7-77-------|
A|----------------------------------------|
D|8-88-888-8-88-888-7-77-777--------875---|

Chorus 2
G|-----------------------------------------------------------------------|
D|--------------------------------------------------------------787------|
A|-----------------------------------------------------------------------|
D|-0-000000-3-333333-7888788878887888-0-000000-3-333333-78887888------875|

G|----------------------------------------------------------------|----|
D|---------------------------/8888-8875---------------------------|----|
A|----------------------------------------------------------------|----|
D|-0-000000-3-333333-78887888-----------0-000000-3-333333-8-888888|--0-|

Bridge
G|------------------------------------------------------------------------------------------------|
D|------------------------------------------------------------------------------------------------|
A|------------------------------------------------------------------------------------------------|
D|--000-30---00--00--0-0--000-30---00--00--0-0--000-30---00--00--0-0--00030---00--8/00--0-0-0-030-|

Solo Pt1 (x2)                 Solo Pt2
G|---------------------------|-------------------------------|
D|---------------------------|-------------------------------|
A|---------------------------|-------------------------------|
D|3-30000-00030-6-60000-00030|-5-55-555555-88888888-7777-875-|

Chorus 3
G|-----------------------------------------------------------------------|
D|--------------------------------------------------------------787------|
A|-----------------------------------------------------------------------|
D|-0-000000-3-333333-7888788878887888-0-000000-3-333333-78887888------875|

G|----------------------------------------------------------------------|
D|------------------------------------------------------7888788878887875|
A|----------------------------------------------------------------------|
D|-0-000000-3-333333-7888788878887888-0-000000-3-333333-----------------|

Chorus 4
G|---------------------------------------------------------------------|
D|--------------------------------------------------------------7875753|
A|---------------------------------------------------------------------|
D|-0-000000-3-333333-7888788878887875-0-000000-3-333333-78887888-------|

G|---------------------------------------------------------|
D|-------------------7888788878887888----------------------|
A|---------------------------------------------------------|
D|-0-000000-3-333333------------------0-000000-3-333333-1~~|

Outro
G|-----------|
D|-----------|
A|-----------|
D|-3-30-0-0-0|


| /  slide up
| \  slide down
| h  hammer-on
| p  pull-off
| ~  vibrato
| +  harmonic
| x  Mute note
===============================================================================
comments
We did not receive enough feedback on this tab! Please rate:
print report bad tab
1 2 3 4 5
1 comment total.
0 reply
dokkendude 31 wrote on July 8 2014, 05:19 pm

nice job bro!

I want to post or [tab]
guest
You may want to rate the tab now too:
select rating
Please do not post tabs as comments. Select "correction" instead!