Oops, an error
Loading. Please wait.

Asleep Tab

version 1
version 1

Whole song

Interactive

35,967 views 6 this week
6 commentsread comments
1 2 3 4 5
x 25
add to favorites
launch autoscroll
font size
0
reset
how to read this tab
guitar tuner
×
Best way to learn
"Asleep"
Autoscroll
slow
fast
+/-
esc
set tempo
stop
Tuning
E A D G B E
This is it, the whole song. It is off of their new acoustic album The Other Side and it kicks ass.


D|-----------------------|-------------------------------|
A|--------3--------------|--------3----------------------|
F|----------2---------3--|----------2---------3----------|
C|------0-----0-----3----|------0-----0-----3-------1----|
G|----0---------0-1------|----0---------0-1-------1---1--|
C|--0--------------------|--0-------------------1--------|x2

D|-----------------|---------|
A|--------3--------|---------|
F|----------2------|------3--|
C|------0-----0----|----3----|
G|----0---------0--|--1------|
C|--0--------------|---------|x8

D|--------0--------|-----------------|
A|----------3------|-----------------|
F|------------2----|------3----------|
C|------0-------0--|----1-------1----|
G|----0------------|--1-------1---1--|
C|--0--------------|--------1--------|x3

D|--------0--------|---------|
A|----------3------|---------|
F|------------2----|------3--|
C|------0-------0--|----1----|
G|----0------------|--1------|
C|--0--------------|---------|x1

D|-----------------------|-------------------------------|
A|--------3--------------|--------3----------------------|
F|----------2---------3--|----------2---------3----------|
C|------0-----0-----3----|------0-----0-----3-------1----|
G|----0---------0-1------|----0---------0-1-------1---1--|
C|--0--------------------|--0-------------------1--------|x2

D|-----------------|---------|
A|--------3--------|---------|
F|----------2------|------3--|
C|------0-----0----|----3----|
G|----0---------0--|--1------|
C|--0--------------|---------|x8

D|--------0--------|-----------------|
A|----------3------|-----------------|
F|------------2----|------3----------|
C|------0-------0--|----1-------1----|
G|----0------------|--1-------1---1--|
C|--0--------------|--------1--------|x7

D|--------0--------|---------|
A|----------3------|---------|
F|------------2----|------3--|
C|------0-------0--|----1----|
G|----0------------|--1------|
C|--0--------------|---------|x1

D|-----------------|---------|
A|--------3--------|---------|
F|----------2------|------3--|
C|------0-----0----|----3----|
G|----0---------0--|--1------|
C|--0--------------|---------|x4

D|-----------------------|-------------------------------|
A|--------3--------------|--------3----------------------|
F|----------2---------3--|----------2---------3----------|
C|------0-----0-----3----|------0-----0-----3-------1----|
G|----0---------0-1------|----0---------0-1-------1---1--|
C|--0--------------------|--0-------------------1--------|x4
Suggest correction
comments
print report bad tab
6 comments total. Showing first comments.
0 reply
BlinkMM182 31 Apr 17, 2005 08:00 PM

awesome tab...I love this song...and FYI its not awake acoustic...the words are different.

0 reply
johnm2k6 10 Jul 30, 2006 10:08 AM

It is an Acoustic version of Awake, even though the words have been changed and the way it is played, but it still kicks a**

0 reply
Chainshred 10 May 15, 2007 01:23 PM

This is a Great tab sounds just like the song good job

guest
You may want to rate the tab now too:
select rating
Wanna post a correction for this tab? Suggest correction