Oops, an error
Loading. Please wait.

Awake Tab

version 1
version 1
85,586 views 93 this week
18 commentsread comments
1 2 3 4 5
x 26
add to favorites
launch autoscroll
font size
0
reset
how to read this tab
guitar tuner
Autoscroll
slow
fast
+/-
esc
set tempo
stop
Help us to improve Ultimate-Guitar.com Take our survey!
×
Tuning
C G C F A D
Godsmack, Awake.
Tabbed by Freak limp_bizkit_planet@yahoo.com.
Corrected By Mikhailo
  
Band: Godsmack
Song: Awake
E-mail: for any questions email to limp_bizkit_planet@yahoo.com 
Tuning: (low to high) C G C F A D



[Intro]

D|----0---(0)---0---0----------------------------------------------------|
A|----3---(3)---3---3----------------------------------------------------|
F|----2---(2)---2---2-----------------3----------------------------------|
C|----0---(0)---0---0--------0--------3---------1---(1)---1-------0---0--| 2X
G|----0---(0)---0---0--------0--------1---------1---(1)---1-------0---0--|
C|----0---(0)---0---0--------0--------1---------1---(1)---1-------0---0--|

D|------------------------------------------------------------------------------------|
A|------------------------------------------------------------------------------------|
F|---7–7–(7)–7–7–(7)–7–7–7–7–7\3---3---(3)-/-8---8---(8)---8---8---8---8---8---8---7--|
C|------------------------------------------------------------------------------------| 2X
G|---5–5–(5)–5–5–(5)–5–5–5–5–5\1–1–(1)/6–8–(6)–6–6–6–6–6–6–5--------------------------| 
C|------------------------------------------------------------------------------------|

(0:17, 1:20)

D|----------------------------------------------------| |-------------------------------------|
A|----------------------------------------------------| |-------------------------------------|
F|----------------------------------------------------| |-----------------------0---(0)-------|
C|----0---0---(0)---0---0-----------------------------| |---0---0---(0)---0---5---(5)---------|
G|----0---0---(0)---0---0-----------------------------| |---0---0---(0)---0-------------------|
C|----0---0---(0)---0---0-----------------------------| |---0---0---(0)---0--------------5 /--|
      P.M ____________/ (PLAY 3 TIMES)             \___________/ P.M

(0:27, 1:29)
D|------------------------------------------------------|    
A|------------------------------------------------------|     
F|-------------------------------7---7---8---8---8---8--|     
C|---0---0-------0---0---(0)----------------------------| 2X  
G|---0---0-------0---0---(0)---5---5---6---6---6---6----|     
C|---0---0-------0---0---(0)----------------------------|     

D|-------------------------------------------------------------|
A|-------------------------------------------------------------|
F|----------------------------------7---7-/-10---10---10---10--|
C|-----0---0------0---0---(0)----------------------------------|
G|-----0---0------0---0---(0)-----5---5-/-8------8-----8-----8-|
C|-----0---0------0---0---(0)----------------------------------|

D|-----------------------------------------------------|      
A|-----------------------------------------------------|      
F|-------------------------------7---7---8---8---8---8-|      
C|---0---0-------0---0---(0)---------------------------|  2X  
G|---0---0-------0---0---(0)---5---5---6---6---6---6---|      
C|---0---0-------0---0---(0)---------------------------|      

D|-------------------------------------------------------------|
A|-------------------------------------------------------------|
F|----------------------------------7---7-/-10---10---10---10--|
C|-----0---0------0---0---(0)----------------------------------|
G|-----0---0------0---0---(0)-----5---5-/-8------8-----8-----8 |
C|-----0---0------0---0---(0)----------------------------------|

[Verse]
(0:45, 1:47)

D|----------------------| |-----------------------------------------------------|
A|----------------------| |-----------------------------------------------------|
F|----------------------| |-------------------------------7---7---8---8---8---8-|             
C|----0-------0---(0)---| |---0---0-------0---0---(0)---------------------------|  2X
G|----0-------0---(0)---| |---0---0-------0---0---(0)---5---5---6---6---6---6---|
C|----0-------0---(0)---| |---0---0-------0---0---(0)---------------------------|

D|---------------------------------------------------------------|-----------------------------------------|
A|---------------------------------------------------------------|-----------------------------------------|
F|----------------------------------7---7-/-10---10---10---10----|---3-------------------------------------|
C|-----0---0------0---0---(0)------------------------------------|---3-----------1---(1)------1---0---0----|
G|-----0---0------0---0---(0)-----5---5-/-8------8-----8-----8---|---1-----------1---(1)------1---0---0----|
C|-----0---0------0---0---(0)------------------------------------|---1-----------1---(1)------1---0---0----|

[Chorus]
(1:02)

D|----0---(0)---0---0-------------------------------------------------------| |
A|----3---(3)---3---3-------------------------------------------------------| |
F|----2---(2)---2---2-----------------3-------------------------------------| |
C|----0---(0)---0---0--------0--------3---------1---(1)---1-------0---0-----| |      
G|----0---(0)---0---0--------0--------1---------1---(1)---1-------0---0-----| | 
C|----0---(0)---0---0--------0--------1---------1---(1)---1-------0---0-----| |

D|-------------------------------------------------------------------------------------------------------|
A|-------------------------------------------------------------------------------------------------------|
F|----7---7---(7)---7---7---(7)---7---7---7---7---7-/-3---3---(3)-/-8---8---(8)---8---8---8---8---8---7--|   
C|-------------------------------------------------------------------------------------------------------|
G|----5---5---(5)---5---5---(5)---5---5---5---5---5-/-1---1---(1)-/-6---6---(6)---6---6---6---6---6---5--|   
C|-------------------------------------------------------------------------------------------------------|

D|---------------------------------------------------------------|
A|---------------------------------------------------------------|
F|7---7---(7)---7---7---(7)---7---7---7---7---7-/-3---3---(3)-/-8|
C|---------------------------------------------------------------|
G|5---5---(5)---5---5---(5)---5---5---5---5---5-/-1---1---(1)-/-6|
C|---------------------------------------------------------------|

D|---------------------------------------------------------------------------|
A|---------------------------------------------------------------------------|
F|---8---(8)---8---8---8---8---8---7-/-3---3---(3)-/-8---(8)---8---8---------|
C|---------------------------------------------------------------------------|
G|---6---(6)---6---6---6---6---6---5-/-1---1---(1)-/-6---(6)---6---6-----13/-|
C|-----------------------------------------------------------------------13/-|

D|--------------------------------------------------------------------------------------------------------|
A|--------------------------------------------------------------------------------------------------------|
F|----7---7---(7)---7---7---(7)---7---7---7---7---7-/-3---3---(3)-/-8---8---(8)---8---8---8---8---8---7---|
C|--------------------------------------------------------------------------------------------------------|
G|----5---5---(5)---5---5---(5)---5---5---5---5---5-/-1---1---(1)-/-6---6---(6)---6---6---6---6---6---5---|
C|--------------------------------------------------------------------------------------------------------|



D|----------------------------------------------------------|
A|----------------------------------------------------------|
F|-----/-3---3---(3)-/-8---8---(8)---8---8---8---8---8---7--|
C|----------------------------------------------------------|  =6X
G|-----/-1---1---(1)-/-6---6---(6)---6---6---6---6---6---5--|
C|----------------------------------------------------------|

D|--------------------------------------------------|
A|--------------------------------------------------|
F|---3---3---(3)-/-8---(8)---8---8---8--------------|
C|--------------------------------------------------|
G|---1---1---(1)-/-6---(6)---6---6---6--------------|
C|---------------------------------------------15 \-|


(2:36)

D|-----------------------------------------------------|
A|-----------------------------------------------------|
F|-----------------------------------------------------|
C|-----------------------------------------------------| = 3X 
G|-----------------------------------------------------|
C|---0---0---0---0-------0---0---0---0---0-------0---0-| 

D|-----------------------------------------------------|
A|-----------------------------------------------------|
F|-----------------------------------------------------|
C|-----------------------------------------------------|
G|---0---0---0---0-------0---0---0---0---0-------0---0-|
C|---0---0---0---0-------0---0---0---0---0-------0---0-| 

[Bridge]
(2:44)

D|-----------------------------------------------------|
A|-----------------------------------------------------|
F|-----------------------------------------------------|
C|-----------------------------------------------------| = 8X 
G|---0---0---0---0-------0---0---0---0---0-------0---0-|
C|---0---0---0---0-------0---0---0---0---0-------0---0-|
  \______________________________________/ P.M

(3:01)

D|----------------------------------------------------|
A|----------------------------------------------------|
F|----------------------------------------------------|
C|----------------------------------------------------|  = 4X
G|---0---0---0---0-------0---0---0---0---0------0---0-| 
C|---0---0---0---0-------0---0---0---0---0------0---0-|
     \___________________________________/P.M
 


(3:16)

D|------------------------------------------------------------|
A|------------------------------------------------------------|
F|------------------------------------------------------------|
C|------------------------------------------------------------|
G|---0---0---0---0-------0---0---0---0---0------0---0---0---0-| 
C|---0---0---0---0-------0---0---0---0---0------0---0---0---0-|
     \__________________________________________/P.M


(3:18)

D|--------------------------------------|
A|--------------------------------------|
F|--------------------------------------|
C|--1---1---(1)---1---1---1---1---------|
G|--1---1---(1)---1---1---1---1-----0---|
C|--1---1---(1)---1---1---1---1-----0---|

D|-------------------------------------------------------------------------------------|
A|-------------------------------------------------------------------------------------|
F|-------------------------------------------------------------------------------------|
C|--1---1---(1)---1---1---1---1------1---(1)-------------------------------------------|
G|--1---1---(1)---1---1---1---1------1---(1)---0---0---0---0---0---0---0---0---0-----0-| 
C|--1---1---(1)---1---1---1---1------1---(1)---0---0---0---0---0---0---0---0---0-----0-|  

D|----------------------------------------------------|
A|----------------------------------------------------|
F|----------------------------------------------------|
C|----------------------------------------------------|
G|---0---0---0---0-------0---0---0---0---0------0---0-| 
C|---0---0---0---0-------0---0---0---0---0------0---0-|
     \___________________________________/P.M


D|-----------------|-------------------------------------|
A|-----------------|-------------------------------------|
F|-----------------|-------------------------------------|
C|-1–1–(1)–1–1–1–1-|-1–1–(1)–1–1–1-----5–5–5–5---5–5–5–5-|
G|-1–1–(1)–1–1–1–1-|-1–1–(1)–1–1–1--1/5–5–5–5---5–5–5–5--|
C|-1–1–(1)–1–1–1–1-|-1–1–(1)–1–1–1--1/5–5–5–5---5–5–5–5--|

D|------------------------------------------|------------------------------------------|
A|------------------------------------------|------------------------------------------|
F|------------------------------------------|------------------------------------------|
C|---5---5---5---5------5---5---5---5-------|---5---5---5---5------5---5---5---5-------|
G|---5---5---5---5------5---5---5---5-------|---5---5---5---5------5---5---5---5-------|
C|---5---5---5---5------5---5---5---5-------|---5---5---5---5------5---5---5---5-------|
                                                               \_______________________/ Play 3 times

D|----------|----------------------------------------------|
A|----5-----|----5---5---5---5---------5---5------5-/------|
F|----5-----|----5---5---5---5---------5---5------5 /------|
C|----5-----|----5---5---5---5---------5---5------5 /------|
G|----5-----|----5---5---5---5---------5---5------5 /------|
C|----------|----------------------------------------------| 



D|-------------------------------------------------------------|--------------------|
A|-------------------------------------------------------------|--------------------|
F|-------------------------------------------------------------|----0---------------|
C|-------------------------------------------------------------|----5---------------|
G|-------------------------------------------------------------|--------------------|
C|---0---0---0---0------0---0---0---0---0----------0---0-------|--------------3 /---|  


[Guitar solo]
(3:44)

D|--------------------------------------------------------------------|-------------------|
A|--------------------------------------------------------------------|---9---(9) \-------|
F|----7-----5-----8---(8)------5------7------7---------7--------------|---7---(7) \-------|
C|-----------------------------------------------------6--------------|-------------------|
G|--------------------------------------------------------------X /---|-------------------|
C|--------------------------------------------------------------X /---|-------------------|

(4:01)

D|--------------------------------------------------------------------------------------
A|--------------------------------------------------------------------------------------
F|---12~ /\ ~ (12) ~ ~ (12) p10---12---(12) /----12 ~ /\ ~ (12) ~ \/ ~ (12) ~ /\ ~ (12) 
C|--------------------------------------------------------------------------------------
G|--------------------------------------------------------------------------------------
C|--------------------------------------------------------------------------------------

D|-------------------------------|
A|-----------10---13 p10------10-|
F|-----------------12------------|
C|-------------------------------|
G|-------------------------------|
C|-------------------------------|

D|-----------------10–(10)--------------------------------------------10------|
A|-1–13p10-----------------------------------------------------------10–10----|
F|-------------13------------13p12h13p12p10------12~/\~(12)-------------13–12-|
C|--------------------------------------------------12------------------------|
G|----------------------------------------------------------------------------|
C|----------------------------------------------------------------------------|

D|------------------------------------------------------|
A|------------------------------------------------------|
F|---10----------10---12 ~ /\ ~---------10--------------|
C|---------12----------------------12--------------X \--|
G|--------------------------------------------------X \ |
C|------------------------------------------------------|

D|-----13 ~ /\ ~----(13)---(13)---13 ~ /\ ~ (13) ~ ~ (13)---10--|
A|--------------------------------------------------------------|
F|--------------------------------------------------------------|
C|--------------------------------------------------------------|
G|-X------------------------------------------------------------|
C|-X------------------------------------------------------------|

D|------------------------------------------------------------------------|
A|--10---13---10---13---10------------------------------------------------|
F|-------------------------------13---12---10-------10---12 ~ /\ ~ ----10-|
C|------------------------------------------------12----------------------|
G|------------------------------------------------------------------------|
C|------------------------------------------------------------------------|

                                                                       

D|--------------------10-----------10---------------------------13--|
A|--------13 ~ /\ ~ --------13----------13---13 ~ /\ ~ (13)---------|
F|------------------------------------------------------------------|
C|--12 \------------------------------------------------------------|
G|------------------------------------------------------------------|
C|------------------------------------------------------------------|


Hold the bend till--------\/ 

D|-------------------15---15 ~ /\ ~ \/ ~ (15)p13-------------------|
A| 13---(13)------------------------------------15------15 ~ /\ ~--|
F|-----------------------------------------------------------------|
C|-----------------------------------------------------------------|
G|-----------------------------------------------------------------|
C|-----------------------------------------------------------------|


[Chorus]
(4:19)

D|----0---(0)---0---0----------------------------------------------------|
A|----3---(3)---3---3----------------------------------------------------|
F|----2---(2)---2---2-----------------3----------------------------------|
C|----0---(0)---0---0--------0--------3---------1---(1)---1-------0---0--|  = 2X
G|----0---(0)---0---0--------0--------1---------1---(1)---1-------0---0--|
C|----0---(0)---0---0--------0--------1---------1---(1)---1-------0---0--|

D|-------------------------------------------------------------|
A|-------------------------------------------------------------|
F|----\ 3---3---(3)-/-8---8---(8)---8---8---8---8---8---8---7--|
C|-------------------------------------------------------------| = 5---51/2 X  
G|----\ 1---1---(1)-/-6---8---(6)---6---6---6---6---6---6---5--| 
C|-------------------------------------------------------------|

D|------------------------------------------------------|
A|------------------------------------------------------|
F|-----/-3---3---(3)-/-8---8---(8)---8---8--------------|
C|------------------------------------------------------|
G|-----/-1---1---(1)-/-6---6---(6)---6---6-------15 \---|
C|-------------------------------------------------15 \-|

[Outro]
(4:54)

D|--------------------------------------------------------|
A|--------------------------------------------------------|
F|--------------------------------------------------------|
C|--------------------------------------------------------| 
G|---0---0---0---0-------0---0---0---0---0------0---0-----| 
C|---0---0---0---0-------0---0---0---0---0------0---0-----|
     \____________________________________/P.M



************************************

( ) = GHOST NOTE
~ /\ ~ = BEND UP
~ \/ ~ = BEND DOWN
\ = SLIDE DOWN
/ = SLIDE UP
P = PULL OFF
H  = HAMMER ON
~ ~ = HELD BENT

************************************
Suggest correction
comments
print report bad tab
18 comments total. Showing first comments.
0 reply
toxicmunky 10 Dec 04, 2001 12:00 AM

Sorry it came out messed up email me for the normal thing

0 reply
KA//E 0 Feb 24, 2002 12:00 AM

In a guitar book I saw in the store, these tabs are exactly accurate. Every little bit of it is accurate!

0 reply
fenderdude890 30 Feb 26, 2002 12:00 AM

finally sumone made a tab 4 this song and it looks good too

guest
You may want to rate the tab now too:
select rating
Wanna post a correction for this tab? Suggest correction