Oops, an error
Loading. Please wait.

Awake Bass Tab

version 2
version 2
4,269 views 1 this week
1 commentread comment
1 2 3 4 5
please rate
add to favorites
launch autoscroll
font size
0
reset
guitar tuner
Autoscroll
slow
fast
+/-
esc
set tempo
stop
Help us to improve Ultimate-Guitar.com Take our survey!
×
Title: Awake
Artist: Godsmack
Album: Awake
Tabber: Steph
Email: cyberbassist@hotmail.com
Standard tuning

intro (do same rythm as drum)
   C            G#   C#
G|-------------------------|
D|-------------------------|
A|-3-33-3-3-3-3------4-444-| 
E|--------------44-4-------|

   C                                      F
G|--------r-----------r----------r----------|
D|--------e-----------e----------e--------3~|
A|-3-3-33-s---3-3-33--s--3-3-33--s--3-3-3---| 
E|--------t-----------t----------t----------|

(do same rythm than guitars)
       
   C    C#  X3 C   C# D#  X1           X3
G|-----------|-------------|------------|
D|-----------|-------------|------------|
A|-33-3-4444-|-333-4-6666--|--33-3-4444-|
E|-----------|-------------|------------|

               X1
G|--------------|
D|--------------|
A|-33-3-4444-6~-| 
E|--------------|

Verse
   C                C# G#
G|------------------------|
D|------------------------|
A|-3-3---3-3---3-3--4-----| 
E|--------------------4---|


Interlude Riff 
  pattern1
   C
G|-----------------------|
D|-----------------------|
A|-3-3-3-3--3-3-3-33--33-| 
E|-----------------------|
  
  pattern2            pattern3
   G#   C#            F
G|------------------|------------------|
D|------------------|------------------|
A|------44------444-|------------------| 
E|-4-44----4-44-----|-1111111111111111-|

all the parts are there, just follow the  rythm guitar cauz' mine might be off


Suggest correction
Give kudos to tab author, rate the tab!
1 2 3 4 5
comments
print report bad tab
1 comment total.
0 reply
wakeke 30 wrote on March 3 2009, 04:23 am

dude this is all wrong because this is supposed to be in drop c tuning

guest
You may want to rate the tab now too:
select rating
Please do not post tabs as comments. Select "correction" instead!