Oops, an error
Loading. Please wait.

Awake Tab

version 2
version 2
17,396 views 6 this week
4 commentsread comments
1 2 3 4 5
x 3
add to favorites
launch autoscroll
font size
0
reset
how to read this tab
guitar tuner
Autoscroll
slow
fast
+/-
esc
set tempo
stop
Help us to improve Ultimate-Guitar.com Take our survey!
×
Band - Godsmack
Song - Awake
Album - Awake
Tabber - Killswitch_mike

Tuning - Low To High - CGCFAD

Intro;

D||-----------------------------------||
A||-----------------------------------||
F||--7-7-7-7-7-7-7-7--3-3-3-----------||  x 4
C||--7-7-7-7-7-7-7-7--3-3-3---1-1-1---||
G||--5-5-5-5-5-5-5-5--1-1-1---1-1-1---||
C||---------------------------1-1-1---||


Pre Verse;

D||--------------------------------------------||
A||--------------------------------------------||
F||----------------------------------------12--||
C||--0-0-0-0---0-0-0-0---0-0-0-0---0-0-0---x---||
G||--0-0-0-0---0-0-0-0---0-0-0-0---0-0-0---10--||
C||--0-0-0-0---0-0-0-0---0-0-0-0---0-0-0-------||
     . . . .   . . . .   . . . .   . . .

D||--------------------------------------------------------------||
A||--------------------------------------------------------------||
F||---------7-7-8-8-8-8---------7-7-8-8-8-8---------7-7-8-8-8-8--||
C||-0-0-0-0-x-x-x-x-x-x-0-0-0-0-x-x-x-x-x-x-0-0-0-0-x-x-x-x-x-x--||
G||-0-0-0-0-5-5-6-6-6-6-0-0-0-0-5-5-6-6-6-6-0-0-0-0-5-5-6-6-6-6--||
C||-0-0-0-0-------------0-0-0-0-------------0-0-0-0--------------||

D||--------------------------||
A||--------------------------||
F||---------7-7-10-10-10-10--||
C||-0-0-0-0-x-x--x--x--x--x--||
G||-0-0-0-0-5-5--8--8--8--8--||
C||-0-0-0-0------------------||

D||----------------------------------------------------------------||
A||----------------------------------------------------------------||
F||---------7-7-8-8-8-8---------7-7-8-8-8-8---------7-7-8-8-8-8/10-||
C||-0-0-0-0-x-x-x-x-x-x-0-0-0-0-x-x-x-x-x-x-0-0-0-0-x-x-x-x-x-x/x--||
G||-0-0-0-0-5-5-6-6-6-6-0-0-0-0-5-5-6-6-6-6-0-0-0-0-5-5-6-6-6-6/8--||
C||-0-0-0-0-------------0-0-0-0-------------0-0-0-0----------------||



Verse;

D||--------------------------------------||
A||o------------------------------------o||
F||--------------------7-7-7-3-3-3-3-3---||
C||--0-0~--0-0~--0-0~--x-x-x-x-x-x-x-x---||
G||o-0-0~--0-0~--0-0~--5-5-5-1-1-1-1-1--o||
C||--0-0~--0-0~--0-0~--------------------||


Chorus;

D||-----------------------------------||
A||-----------------------------------||
F||--7-7-7-7-7-7-7-7--3-3-3-----------||  x 4
C||--7-7-7-7-7-7-7-7--3-3-3---1-1-1---||
G||--5-5-5-5-5-5-5-5--1-1-1---1-1-1---||
C||---------------------------1-1-1---||


Pre Verse;

D||--------------------------------------------||
A||--------------------------------------------||
F||----------------------------------------12--||
C||--0-0-0-0---0-0-0-0---0-0-0-0---0-0-0---x---||
G||--0-0-0-0---0-0-0-0---0-0-0-0---0-0-0---10--||
C||--0-0-0-0---0-0-0-0---0-0-0-0---0-0-0-------||
     . . . .   . . . .   . . . .   . . .

D||--------------------------------------------------------------||
A||--------------------------------------------------------------||
F||---------7-7-8-8-8-8---------7-7-8-8-8-8---------7-7-8-8-8-8--||
C||-0-0-0-0-x-x-x-x-x-x-0-0-0-0-x-x-x-x-x-x-0-0-0-0-x-x-x-x-x-x--||
G||-0-0-0-0-5-5-6-6-6-6-0-0-0-0-5-5-6-6-6-6-0-0-0-0-5-5-6-6-6-6--||
C||-0-0-0-0-------------0-0-0-0-------------0-0-0-0--------------||

D||--------------------------||
A||--------------------------||
F||---------7-7-10-10-10-10--||
C||-0-0-0-0-x-x--x--x--x--x--||
G||-0-0-0-0-5-5--8--8--8--8--||
C||-0-0-0-0------------------||

D||----------------------------------------------------------------||
A||----------------------------------------------------------------||
F||---------7-7-8-8-8-8---------7-7-8-8-8-8---------7-7-8-8-8-8/10~||
C||-0-0-0-0-x-x-x-x-x-x-0-0-0-0-x-x-x-x-x-x-0-0-0-0-x-x-x-x-x-x/x~-||
G||-0-0-0-0-5-5-6-6-6-6-0-0-0-0-5-5-6-6-6-6-0-0-0-0-5-5-6-6-6-6/8~-||
C||-0-0-0-0-------------0-0-0-0-------------0-0-0-0----------------||

D||--------------||
A||--------------||
F||-10-10-\\\\\--||
C||--x--x-\\\\\--||
G||--8--8-\\\\\--||
C||--------------||


Verse;

D||--------------------------------------||
A||o------------------------------------o||
F||--------------------7-7-7-3-3-3-3-3---||
C||--0-0~--0-0~--0-0~--x-x-x-x-x-x-x-x---||
G||o-0-0~--0-0~--0-0~--5-5-5-1-1-1-1-1--o||
C||--0-0~--0-0~--0-0~--------------------||


Chorus;

D||-----------------------------------||
A||-----------------------------------||
F||--7-7-7-7-7-7-7-7--3-3-3-----------||  x 8
C||--7-7-7-7-7-7-7-7--3-3-3---1-1-1---||
G||--5-5-5-5-5-5-5-5--1-1-1---1-1-1---||
C||---------------------------1-1-1---||

Bridge;

D||--------------------------------------------||
A||--------------------------------------------||
F||--------------------------------------------||
C||-0000-0000-00--0000-0000-00--0000--0000-00--|| x 12
G||-0000-0000-00--0000-0000-00--0000--0000-00--||
C||-0000-0000-00--0000-0000-00--0000--0000-00--||
                  .... .... ..  ....  .... ..

D||----------------------------------------------------------------------||
A||----------------------------------------------------------------------||
F||----------------------------------------------------------------------||
C||-1-1---1-1-1-1--1-1---1-1-1-1---5-5-5-5---5-5-5-5---5-5-5-5---5-5-5-5-||
G||-1-1---1-1-1-1--1-1---1-1-1-1---5-5-5-5---5-5-5-5---5-5-5-5---5-5-5-5-||
C||-1-1---1-1-1-1--1-1---1-1-1-1---5-5-5-5---5-5-5-5---5-5-5-5---5-5-5-5-||
                                                                 . . . . 

Solo;

D||---------------------------||
A||---------------------------||
F||--7"--5"--8"--5"--7"--7"---||
C||---------------------------||
G||---------------------------||
C||---------------------------||

No Point Doing The Next Bit , Version 1 Has It Spot On , 


Chorus;

D||-----------------------------------||
A||-----------------------------------||
F||--7-7-7-7-7-7-7-7--3-3-3-----------||  x 8
C||--7-7-7-7-7-7-7-7--3-3-3---1-1-1---||
G||--5-5-5-5-5-5-5-5--1-1-1---1-1-1---||
C||---------------------------1-1-1---||


Outro;

D||--------------------------------------------||
A||--------------------------------------------||
F||--------------------------------------------||
C||-0000-0000-00--0000-0000-00--0000--0000-00--|| 
G||-0000-0000-00--0000-0000-00--0000--0000-00--||
C||-0000-0000-00--0000-0000-00--0000--0000-00--||
    .... .... ..  .... .... ..  ....  .... ..

Please Rate & Comment

Cheers

Mike
Suggest correction
Give kudos to tab author, rate the tab!
1 2 3 4 5
comments
print report bad tab
4 comments total. Showing first comments.
0 reply
goddddddddddd 10 May 10, 2006 04:40 PM

i only looked at the intro and its wrong

0 reply
killswitch_mike 785 May 11, 2006 10:50 AM

Well your a thick shit arent you? the intro on the other tab , first chord sounds the same as the one i have put, it does sound right

0 reply
xX_KsE_Xx 10 Jul 03, 2006 11:51 AM

this is shitt, godddddddddddddd is very right

guest
You may want to rate the tab now too:
select rating
Wanna post a correction for this tab? Suggest correction