Oops, an error
Loading. Please wait.

Awake Bass Tab

version 3
version 3
1,583 views 1 this week
no commentswrite comment
1 2 3 4 5
3 more votes to show rating
add to favorites
launch autoscroll
font size
0
reset
guitar tuner
Autoscroll
slow
fast
+/-
esc
set tempo
stop
Help us to improve Ultimate-Guitar.com Take our survey!
×
Song: Awake
Artist: Godsmack
Album: Awake

I saw that none of the other bass tabs for this song were for a 5-String, and I like 
using the low B for this song because I think it sounds better than tuning the E string 
down to C

This is my first tab. It probably has a few errors in it, so please comment if u find any

Tuning: Standard (5-String)

INTRO
G:-----------------------------------------------------------|
D:-----------------------------------------------------------|(x4)
A:-----------------------------------------------------------|
E:------------------------------4----4--4--------------------|
B:-1----1--1--1----1--1--1--1---------------2----2--2--2--2--|

INTERLUDE 1
F:-----------------------------------------------------------|
C:-----------------------------------------------------------|(x1)
G:-----------------------------------------------------------|
E:-----------------------------------------------------------|
B:--1--1--1-1-----1--1--1-1-----1--1--1-1-----1--1--1-3------|

INTERLUDE 2
G:---------------------------|       G:---------------------------|
D:---------------------------|(x3)   D:---------------------------|(x1)
A:---------------3-3-4444----|       A:---------------3-3-6666----|
E:---------------------------|       E:---------------------------|
B:--1--1--1-1----------------|       B:--1--1--1-1----------------|

G:---------------------------|
D:---------------------------|(x2)
A:---------------3-3-4444----|
E:---------------------------|
B:--1--1--1-1----------------|

                      (let ring)
G:----------------------------|
D:----------------------------|(x1)
A:---------------3-3-444--6---|
E:----------------------------|
B:--1--1--1-1-----------------|

VERSE
G:-----------------------------------------------------------|
D:-----------------------------------------------------------|(x2)
A:-----------------------------------------------------------|
E:--------------------------4/9------------------------------|
B:--1--1---1--1---1--1---2------7-9--------------------------|

CHORUS
G:-----------------------------------------------------------|
D:-----------------------------------------------------------|(x4)
A:-----------------------------------------------------------|
E:------------------------------4----4--4--------------------|
B:-1----1--1--1----1--1--1--1---------------2----2--2--2--2--|

INTERLUDE 1
F:-----------------------------------------------------------|
C:-----------------------------------------------------------|(x1)
G:-----------------------------------------------------------|
E:-----------------------------------------------------------|
B:--1--1--1-1-----1--1--1-1-----1--1--1-1-----1--1--1-3------|

INTERLUDE 2
G:---------------------------|       G:---------------------------|
D:---------------------------|(x3)   D:---------------------------|(x1)
A:---------------3-3-4444----|       A:---------------3-3-6666----|
E:---------------------------|       E:---------------------------|
B:--1--1--1-1----------------|       B:--1--1--1-1----------------|

G:---------------------------|
D:---------------------------|(x2)
A:---------------3-3-4444----|
E:---------------------------|
B:--1--1--1-1----------------|

                      (let ring)
G:----------------------------|
D:----------------------------|(x1)
A:---------------3-3-444--6---|
E:----------------------------|
B:--1--1--1-1-----------------|

VERSE
G:-----------------------------------------------------------|
D:-----------------------------------------------------------|(x2)
A:-----------------------------------------------------------|
E:--------------------------4/9------------------------------|
B:--1--1---1--1---1--1---2------7-9--------------------------|

CHORUS
G:-----------------------------------------------------------|
D:-----------------------------------------------------------|(x6)
A:-----------------------------------------------------------|
E:------------------------------4----4--4--------------------|
B:-1----1--1--1----1--1--1--1---------------2----2--2--2--2--|

Bridge (guitar plays for 3 measures before bass comes in)
G:----------------------------------|
D:----------------------------------|(x17)
A:----------------------------------|
E:----------------------------------|
B:-1-1-1-1---1-1-1-1-1---1-1--------|

G:-----------------------------------------------------------|
D:-----------------------------------------------------------|(x1)
A:-----------------------------------------------------------|
E:-----------------------------------------------------------|
B:--2--2-2--2--2-2--1-2----2--2-2--2--2-2--1-2---------------|

G:----------------------------------------|
D:----------------------------------------|(x1)
A:----------------------------------------|
E:----------------------------------------|
B:-2-2---1-1-1-1---1-1-1-1-1---1-1--------|

G:-----------------------------------------------------------|
D:-----------------------------------------------------------|(x1)
A:-----------------------------------------------------------|
E:-----------------------------------------------------------|
B:--2--2-2--2--2-2--1-2----2--2-2--2--2-2--1-2---------------|

INTERLUDE 3
G:-----------------------------------------------------------|
D:-----------------------------------------------------------|(x1)
A:-----------------------------------------------------------|
E:--1-1-1-1-1-1-1-1-1-1-1-1-1-1-1-1--------------------------|
B:-----------------------------------------------------------|

SOLO
G:----------------------------------------|
D:----------------------------------------|(x8)
A:----------------------------------------|
E:----------------------------------------|
B:--1-1-1-1---1-1-1-1-1---1-1-------------|

G:-----------------------------------------------------------|
D:-----------------------------------------------------------|(x2)
A:-----------------------------------------------------------|
E:-----------------------------------------------------------|
B:--2--2-2--2--2-2--1-2----2--2-2--2--2-2--1-2---------------|

G:----------------------------------------|
D:----------------------------------------|(x2)
A:----------------------------------------|
E:----------------------------------------|
B:--1-1-1-1---1-1-1-1-1---1-1-------------|

G:-----------------------------------------------------------|
D:-----------------------------------------------------------|(x2)
A:-----------------------------------------------------------|
E:-----------------------------------------------------------|
B:--2--2-2--2--2-2--1-2----2--2-2--2--2-2--1-2---------------|

INTERLUDE 3
G:-----------------------------------------------------------|
D:-----------------------------------------------------------|(x1)
A:-----------------------------------------------------------|
E:--1-1-1-1-1-1-1-1-1-1-1-1-1-1-1-1--------------------------|
B:-----------------------------------------------------------|

CHORUS
G:-----------------------------------------------------------|
D:-----------------------------------------------------------|(x8)
A:-----------------------------------------------------------|
E:------------------------------4----4--4--------------------|
B:-1----1--1--1----1--1--1--1---------------2----2--2--2--2--|

OUTRO
G:----------------------------------|
D:----------------------------------|(x4)
A:----------------------------------|
E:----------------------------------|
B:-1-1-1-1---1-1-1-1-1---1-1--------|
Suggest correction
Give kudos to tab author, rate the tab!
1 2 3 4 5
comments
print report bad tab
guest
You may want to rate the tab now too:
select rating
Wanna post a correction for this tab? Suggest correction