Oops, an error
Loading. Please wait.

Awake tab

version 4
version 4
10,242 views 3 this week
5 commentsread comments
1 2 3 4 5
x 9
add to favorites
×
Save as Personal and add changes to this tab that will be seen only by you. Learn more ›
×
You can save this tab as Personal to edit and correct it or add notes. All changes will be seen only by you. Learn more »
launch autoscroll
font size
0
reset
how to read this tab
guitar tuner
backing track
0:00
0:00
edit
Autoscroll
slow
fast
+/-
esc
set tempo
stop
Band- Godsmack
Song- Awake
Album- Awake

Gtr I (C G C F A D) - 'Gtr1'
Gtr II (C G C F A D) - 'Gtr 2'
Gtr III (C G C F A D) - 'Gtr 3'

   Intro/1st Chrous
    Moderate Heavy Rock Q=111
    $
    Dsus2           D5  EbsusEb5      D5
   4/4
    Gtrs I, II
    Q.   E +Q   E S S   Q.   E +Q   E S S
||--0----0-(0)--0-0---|--------------------||
||o-3----3-(3)--3-3---|-------------------o||
||--2----2-(2)--2-2---|-3------------------||
||--0----0-(0)--0-0-0-|-3----1-(1)--1-0-0--||
||o-0----0-(0)--0-0-0-|-1----1-(1)--1-0-0-o||
||--0----0-(0)--0-0-0-|------1-(1)--1-0-0--||


    D
    Gtr III
    E. S +S  S E +S  E S E S S
||-----------------------------|
||o----------------------------|
||--7--7-(7)-7-7-(7)-7-7-7-7-7S|
||--x--x-----x-x-----x-x-x-x-x-|
||o-5--5-(5)-5-5-(5)-5-5-5-5-5S|
||-----------------------------|
|
|   Gtrs I, II
|   Q.         E +Q      E S S
||--0----------0-(0)-----0-0---|
||o-3----------3-(3)-----3-3---|
||--2----------2-(2)-----2-2---|
||--0----------0-(0)-----0-0-0-|
||o-0----------0-(0)-----0-0-0-|
||--0----------0-(0)-----0-0-0-|


 1.                               2.
  Bb       Eb                D     Bb        Eb        Eb5
  E. S +S  S E +S  E S S S S S      E. S +E  E +S  E S  Q
|-------------------------------||--------------------------|
|------------------------------o||--------------------------|
|-3--3-(3)S8-8-(8)-8-8-8-8-8-7--||-\3--3-(3)S8-(8)-8-8------|
|-x--x-----x-x-----x-x-x-x-x-x--||--x--x-----x-----x-x------|
|-1--1-(1)S6-6-(6)-6-6-6-6-6-5-o||-\1--1-(1)S6-(6)-6-6-13\--|
|-------------------------------||---------------------13\--|
|
| Q.         E +Q      E   S S      Q.       E +Q       Q
|-------------------------------||--------------------------|
|------------------------------o||--------------------------|
|-3-----------------------------||--3-----------------------|
|-3----------1-(1)-----1---0-0--||--3--------1-(1)----------|
|-1----------1-(1)-----1---0-0-o||--1--------1-(1)-----13\--|
|------------1-(1)-----1---0-0--||-----------1-(1)-----13\--|


    Gtrs I, II
    PM---------|          PM-------|
    E. S +S  S E H     3x E. S +S  S  E  +Q   Q
||---------------------||-------------------------|
||o-------------------o||-------------------------|
||---------------------||------------12-(12)------|
||--0--0-(0)-0-0-------||-0--0-(0)-0--x-----------|
||o-0--0-(0)-0-0------o||-0--0-(0)-0-10-(10)------|
||--0--0-(0)-0-0-------||-0--0-(0)-0----------5/--|


    E. S S S E +S  E S S S S S
||-----------------------------|
||o----------------------------|
||-----------------7s8-8-8-8-8-|
||--0--0---0-0-(0)-x---x-x-x-x-|
||o-0--0---0-0-(0)-5s6-6-6-6-6-|
||--0--0---0-0-(0)-------------|


                              1.
  E. S S S E +S  E S S S S S   E. S S S E +S  E S S S S S
|----------------------------|----------------------------|
|----------------------------|----------------------------|
|----------------7s8-8-8-8-8-|----------------7s8-8-8-8-8-|
|-0--0---0-0-(0)-x---x-x-x-x-|-0--0---0-0-(0)-x---x-x-x-x-|
|-0--0---0-0-(0)-5s6-6-6-6-6-|-0--0---0-0-(0)-5s6-6-6-6-6-|
|-0--0---0-0-(0)-------------|-0--0---0-0-(0)-------------|


  E. S S S E +S  E  S  S  S  S  S
|-----------------------------------||
|----------------------------------o||
|----------------7s10-10-10-10-10---||
|-0--0---0-0-(0)-x-----x--x--x--x---||
|-0--0---0-0-(0)-5s=8--8--8--8--8--o||
|-0--0---0-0-(0)--------------------||


                                                    1st Verse
  2.
                       To Coda
  E. S S S E +S  E S S S S  S     H.       +Q        Q  E E +Q   Q
|------------------------------|-----------------||------------------|
|------------------------------|-----------------||o-----------------|
|----------------7s8-8-8-8s10--|-10-------(10)\--||------------------|
|-0--0---0-0-(0)-x---x-x-x-----|--9--------(9)\--||--0----0-(0)------|
|-0--0---0-0-(0)-5s6-6-6-6s=8--|--8--------(8)\--||o-0----0-(0)------|
|-0--0---0-0-(0)---------------|-----------------||--0----0-(0)------|


                                           D.S. al Coda
  Q  E E +Q   Q    Q  E E +Q   Q     Q.   E +Q   E S S
|----------------|----------------|----------------------||
|----------------|----------------|---------------------o||
|----------------|----------------|-^3-------------------||
|-0----0-(0)-----|-0----0-(0)-----|-^3----1-(1)--1-0-0---||
|-0----0-(0)-----|-0----0-(0)-----|-^1----1-(1)--1-0-0--o||
|-0----0-(0)-----|-0----0-(0)-----|-^1----1-(1)--1-0-0---||


                        2nd Verse
  &
   H     +E   E  Q       Q  E E +Q   Q    Q  E E +Q   Q
|--------------------||-----------------|----------------|
|--------------------||o----------------|----------------|
|-10----(10)-10-10\--||-----------------|----------------|
|--9-----(9)--9--9\--||--0----0-(0)-----|-0----0-(0)-----|
|--8-----(8)--8--8\--||o-0----0-(0)-----|-0----0-(0)-----|
|--------------------||--0----0-(0)-----|-0----0-(0)-----|


  Q  E E +Q   Q     Q.   E +Q   E S S
|----------------|-----------------------||
|----------------|----------------------o||
|----------------|-^3--------------------||
|-0----0-(0)-----|-^3----1-(1)--1-0-0----||
|-0----0-(0)-----|-^1----1-(1)--1-0-0---o||
|-0----0-(0)-----|-^1----1-(1)--1-0-0----||


   2nd Chorus
    Q.   E +Q   E S S   Q.   E +Q   E S S  5x
||--0----0-(0)--0-0---|--------------------||
||o-3----3-(3)--3-3---|-------------------o||
||--2----2-(2)--2-2---|-3------------------||
||--0----0-(0)--0-0-0-|-3----1-(1)--1-0-0--||
||o-0----0-(0)--0-0-0-|-1----1-(1)--1-0-0-o||
||--0----0-(0)--0-0-0-|------1-(1)--1-0-0--||


    Gtr III
    E. S +S  S E +S  E S E S S
||-----------------------------|
||o----------------------------|
||--7--7-(7)-7-7-(7)-7-7-7-7-7s|
||--x--x-----x-x-----x-x-x-x-x-|
||o-5--5-(5)-5-5-(5)-5-5-5-5-5s|
||-----------------------------|
|
|   Gtrs I, II
|   Q.         E +Q      E S S
||--0----------0-(0)-----0-0---|
||o-3----------3-(3)-----3-3---|
||--2----------2-(2)-----2-2---|
||--0----------0-(0)-----0-0-0-|
||o-0----------0-(0)-----0-0-0-|
||--0----------0-(0)-----0-0-0-|


 1.                               2.
  E. S +S  S E  S  E S S S S S     E. S +S  S E  S  S S S  Q
|-------------------------------||-----------------------------||
|------------------------------o||-----------------------------||
|-3--3-(3)S8-8--8--8-8-8-8-8-7--||-3--3-(3)S8-8--8--8-8-8------||
|----x-----x-x--x--x-x-x-x-x-x--||-x--x-----x-x--x--x-x-x------||
|-1--1-(1)S6-6--6--6-6-6-6-6-5-o||-1--1-(1)S6-6--6--6-6-6------||
|-------------------------------||------------------------15\--||
|
| Q.         E +Q      E   S S     Q.         E +Q         Q
|-------------------------------||-----------------------------||
|------------------------------o||-----------------------------||
|-3-----------------------------||-3---------------------------||
|-3----------1-(1)-----1---0-0--||-3----------1-(1)------------||
|-1----------1-(1)-----1---0-0-o||-1----------1-(1)------------||
|------------1-(1)-----1---0-0--||------------1-(1)-------15\--||


    Gtr I
    S S S S S S S S S S E S S E
||-------------------------------||
||o-----------------------------o||
||-------------------------------||
||-------------------------------||
||o-----------------------------o||
||--0-0-0-0---0-0-0-0-0---0-0----||


  Gtrs I, II
  S S S S S S S S S S E S S E   S S S S S S S S S S E S S E
|-----------------------------|-------------------------------||
|-----------------------------|-------------------------------||
|-----------------------------|-------------------------------||
|-----------------------------|-------------------------------||
|-----------------------------|-0-0-0-0---0-0-0-0-0---0-0-----||
|-0-0-0-0---0-0-0-0-0---0-0---|-0-0-0-0---0-0-0-0-0---0-0-----||


   Bridge
    Gtr I
    PM----------------------|       PM--------------------------|
    S S S S S S S S S S E S S E 11x S S S S S S S S S S E S S S S
||-------------------------------||--------------------------------|
||o-----------------------------o||--------------------------------|
||-------------------------------||--------------------------------|
||-------------------------------||--------------------------------|
||o-0-0-0-0---0-0-0-0-0---0-0---o||-0-0-0-0---0-0-0-0-0---0-0-0-0--|
||--0-0-0-0---0-0-0-0-0---0-0----||-0-0-0-0---0-0-0-0-0---0-0-0-0--|
|
|   Gtr II
|   PM----------------------|       PM----------------------|
|   S S S S S S S S S S E S S E 11x S S S S S S S S S S E S S E
||-------------------------------||--------------------------------|
||o-----------------------------o||--------------------------------|
||-------------------------------||--------------------------------|
||-------------------------------||--------------------------------|
||o-0-0-0-0---0-0-0-0-0---0-0---o||-0-0-0-0---0-0-0-0-0---0-0------|
||--0-0-0-0---0-0-0-0-0---0-0----||-0-0-0-0---0-0-0-0-0---0-0------|


  Gtrs I, II
                                                    PM--------------------|
  E. S +S  E S Q  E. S   E. S +S  E S E E E E   +S  S S S S S S S S S E S S E
|----------------------|----------------------|--------------------------------|
|----------------------|----------------------|--------------------------------|
|----------------------|----------------------|--------------------------------|
|-1--1-(1)-1-1-1--1----|-1--1-(1)-1-1-1-1---1-|-(1)----------------------------|
|-1--1-(1)-1-1-1--1--0-|-1--1-(1)-1-1-1-1---1-|-(1)-0-0-0-0-0-0-0-0-0---0-0----|
|-1--1-(1)-1-1-1--1--0-|-1--1-(1)-1-1-1-1---1-|-(1)-0-0-0-0-0-0-0-0-0---0-0----|


  PM----------------------|
  S S S S S S S S S S E S S E   E. S +S  E S Q  Q    E. S +S  E S Q  Q
|-----------------------------|--------------------|----------------------|
|-----------------------------|--------------------|----------------------|
|-----------------------------|--------------------|----------------------|
|-----------------------------|-1--1-(1)-1-1-1--1--|-1--1-(1)-1-1-1-------|
|-0-0-0-0---0-0-0-0-0---0-0---|-1--1-(1)-1-1-1--1--|-1--1-(1)-1-1-1--1S===|
|-0-0-0-0---0-0-0-0-0---0-0---|-1--1-(1)-1-1-1--1--|-1--1-(1)-1-1-1--1S===|


                                    G
    PM------|
  E E E E E E E E   E E E E E E Q
|-----------------|-----------------|
|-----------------|-----------------|
|-----------------|-----------------|
|-5-5-5-5-5-5-5-5-|-5-5-5-5-5-5-5\--|
|-5-5-5-5-5-5-5-5-|-5-5-5-5-5-5-5\--|
|-5-5-5-5-5-5-5-5-|-5-5-5-5-5-5-5\--|


 tr I                               Gtrs I, II
    PM----------------------|       PM----------------------|
    S S S S S S S S S S E S S E     S S S S S S S S S S E S S E
||-------------------------------||-----------------------------||
||o-----------------------------o||-----------------------------||
||-------------------------------||-----------------------------||
||-------------------------------||-----------------------------||
||o-----------------------------o||-----------------------------||
||--0-0-0-0---0-0-0-0-0---0-0----||-0-0-0-0---0-0-0-0-0---0-0---||


                   Guitar Solo
  Gtr III
                    TP
    W               W
|---------------||------------------------------|
|-^<5>----------||o-----------------------------|
|-^<5>----------||--7---------------------------|
|-^<5>----------||------------------------------|
|-^<5>----------||o-----------------------------|
|---------------||------------------------------|
|
| Gtrs I, II
|                   PM----------------------|
|   H.      Q       S S S S S S S S S S E S S E
|---------------||------------------------------|
|---------------||o-----------------------------|
|--12-----------||------------------------------|
|---x-----------||------------------------------|
|--10-----------||o-0-0-0-0---0-0-0-0-0---0-0---|
|-----------3\--||--0-0-0-0---0-0-0-0-0---0-0---|


  TP           TP   TP     TP
  Q.           E   +Q      Q
|---------------------------------|
|---------------------------------|
|-5------------8---(8)-----5------|
|---------------------------------|
|---------------------------------|
|---------------------------------|
|
| PM-------------------------|
| S  S S S S S S S  S  S E S S E
|---------------------------------|
|---------------------------------|
|---------------------------------|
|---------------------------------|
|-0--0-0-0---0-0-0--0--0---0-0----|
|-0--0-0-0---0-0-0--0--0---0-0----|


                               1.
  TP                            TP
  W                             H.                     Q
|-----------------------------|--------------------------------||
|-----------------------------|-------------------------------o||
|-7---------------------------|-7------------------------------||
|-----------------------------|-6------------------------------||
|-----------------------------|------------------------x\-----o||
|-----------------------------|------------------------x\------||
|
| PM----------------------|     PM------------------------|
| S S S S S S S S S S E S S E   S  S S S S S S S S S E S  S E
|-----------------------------|--------------------------------||
|-----------------------------|-------------------------------o||
|-----------------------------|--------------------------------||
|-----------------------------|--------------------------------||
|-0-0-0-0---0-0-0-0-0---0-0---|-0--0-0-0---0-0-0-0-0---0--0---o||
|-0-0-0-0---0-0-0-0-0---0-0---|-0--0-0-0---0-0-0-0-0---0--0----||


 2.
  TP
  H.                     +Q
|---------------------------------|
|-9----------------------(9)\-----|
|-7----------------------(7)\-----|
|---------------------------------|
|---------------------------------|
|---------------------------------|
|
| PM--------------------------|
| S  S S S S S S S S S E  S   S E
|---------------------------------|
|---------------------------------|
|---------------------------------|
|---------------------------------|
|-0--0-0-0---0-0-0-0-0----0---0---|
|-0--0-0-0---0-0-0-0-0----0---0---|


                            ~~
  E.  S      +E     +S   S  H        +E.   S      +S   +E.        +E.   S  S  S  S  S
|---------------------------------|---------------------------------------------------|
|---------------------------------|------------------------------------10-13p10----10-|
|----12b14==(12)r==(12)p10-12-----|-(12)\-12b14==(12)r(12)b14====(12)r----------12----|
|---------------------------------|---------------------------------------------------|
|---------------------------------|---------------------------------------------------|
|---------------------------------|---------------------------------------------------|
|
| E.  S      +S  E       S  Q  Q      E.   S      +S    E      S   Q       Q
|---------------------------------|---------------------------------------------------|
|---------------------------------|---------------------------------------------------|
|---------------------------------|---------------------------------------------------|
|-1---1------(1)-1-------1--1--1--|---1----1------(1)---1------1---1------------------|
|-1---1------(1)-1-------1--1--1--|---1----1------(1)---1------1---1-------1----------|
|-1---1------(1)-1-------1--1--1--|---1----1------(1)---1------1---1-------1----------|


         |---3---|   |---3----|  |---3---|
   S  S  S  S    S  +S   S    S  S  S    S  S  E.       +S    S  S  S
|---------------10-(10)-----------------------------------------------|
|-10-13p10--------------13p==10------------------------------10-13-12-|
|----------13-------------------13p12p==10----12b14====(12)r----------|
|------------------------------------------12-------------------------|
|---------------------------------------------------------------------|
|---------------------------------------------------------------------|
|
|  PM--------------------------------------------------------|
|  S  S  S    S      S     S     S    S     S  S     E   S    S  E
|---------------------------------------------------------------------|
|---------------------------------------------------------------------|
|---------------------------------------------------------------------|
|---------------------------------------------------------------------|
|--0--0--0----0------------0-----0----0-----0--0---------0----0-------|
|--0--0--0----0------------0-----0----0-----0--0---------0----0-------|


                                   ~~
   |----3----|
   E    E    E    E        +E      Q      Q
|------------------------------------------------|
|------------------------------------------------|
|-10--------10---12b14====(12)r---10-----10\-----|
|------12----------------------------------------|
|------------------------------------------------|
|------------------------------------------------|
|
|  PM----------------------------------------|
|  S S    S    S  S     S   S   S  S S E  S  S E
|------------------------------------------------|
|------------------------------------------------|
|------------------------------------------------|
|------------------------------------------------|
|--0-0----0----0--------0---0---0--0-0----0--0---|
|--0-0----0----0--------0---0---0--0-0----0--0---|


                                                                                     ~~
  E   E       +Q       S      +E.  +S   +E.    S   E  S  S   S  S  S  S  S  E  E     E
|----13b15---(13)-----13b15==(13)r(13)-(13)-|-10----------------------------------------|
|-------------------------------------------|-----13-10-----10--------------------------|
|-------------------------------------------|-----------12-----13-12-10----10-12b14-10--|
|-------------------------------------------|---------------------------12--------------|
|-------------------------------------------|-------------------------------------------|
|-------------------------------------------|-------------------------------------------|
|
| E.       S  +S  E S  Q            Q          E.     S +S   E     S  Q        Q
|-------------------------------------------|-------------------------------------------|
|-------------------------------------------|-------------------------------------------|
|-------------------------------------------|-------------------------------------------|
|-1--------1--(1)-1-1--1------------1-------|--1------1-(1)--1-----1--1-----------------|
|-1--------1--(1)-1-1--1------------1-------|--1------1-(1)--1-----1--1--------1--------|
|-1--------1--(1)-1-1--1------------1-------|--1------1-(1)--1-----1--1--------1--------|


    ~~~~
   +E.    S  S  S  E  S  S  S  S  S  E.
|--------------------------13----13-15----|
|--------13-13-15-13-13h15----15----------|
|-(10)------------------------------------|
|-----------------------------------------|
|-----------------------------------------|
|-----------------------------------------|
|
|      PM------------------|
|   E  E     E     E  E     E     E     E
|-----------------------------------------|
|-----------------------------------------|
|-----------------------------------------|
|---5--5-----5-----5--5-----5-----5-----5-|
|---5--5-----5-----5--5-----5-----5-----5-|
|---5--5-----5-----5--5-----5-----5-----5-|


                                      3rd Chorus
                                ~~~~~~~~~~~~
   Q.        +E   E     +S   S  Q       +H.           +Q
|-15b17-----(15)-15b17r(15)p13------||-------------------------||
|------------------------------15---||-(15)----------(15)\-----||
|-----------------------------------||-------------------------||
|-----------------------------------||-------------------------||
|-----------------------------------||-------------------------||
|-----------------------------------||-------------------------||
|
|  E    E E   E   E      E      Q        Q.   E +Q     E   S S
|-----------------------------------||---0----0-(0)----0---0---||
|-----------------------------------||---3----3-(3)----3---3---||
|-----------------------------------||---2----2-(2)----2---2---||
|--5----5-5---5---5------5------5\--||---0----0-(0)----0---0-0-||
|--5----5-5---5---5------5------5\--||---0----0-(0)----0---0-0-||
|--5----5-5---5---5------5------5\--||---0----0-(0)----0---0-0-||


  Gtrs I, II
  Q.   E +Q   E S S     Q.   E +Q   E S S   Q.   E +Q   E S S  5x
|-------------------||--0----0-(0)--0-0---|--------------------||
|-------------------||o-3----3-(3)--3-3---|-------------------o||
|-3-----------------||--2----2-(2)--2-2---|-3------------------||
|-3----1-(1)--1-0-0-||--0----0-(0)--0-0-0-|-3----1-(1)--1-0-0--||
|-1----1-(1)--1-0-0-||o-0----0-(0)--0-0-0-|-1----1-(1)--1-0-0-o||
|------1-(1)--1-0-0-||--0----0-(0)--0-0-0-|------1-(1)--1-0-0--||


    Gtr III
    E. S +S  S E +S  E S E S S
||-----------------------------|
||o----------------------------|
||--7--7-(7)-7-7-(7)-7-7-7-7-7S|
||--x--x-----x-x-----x-x-x-x-x-|
||o-5--5-(5)-5-5-(5)-5-5-5-5-5S|
||-----------------------------|
|
|   Gtrs I, II
|   Q.         E +Q      E S S
||--0----------0-(0)-----0-0---|
||o-3----------3-(3)-----3-3---|
||--2----------2-(2)-----2-2---|
||--0----------0-(0)-----0-0-0-|
||o-0----------0-(0)-----0-0-0-|
||--0----------0-(0)-----0-0-0-|


 1.                               2.
  E. S +S  S E +S  E S S S S S     E. S +S  S E   +S  E S  Q
|-------------------------------||-----------------------------||
|------------------------------o||-----------------------------||
|-3--3-(3)S8-8-(8)-8-8-8-8-8-7--||-3--3-(3)S8-8---(8)-8-8------||
|-x--x-----x-x-----x-x-x-x-x-x--||-x--x-----x-x-------x-x------||
|-1--1-(1)S6-6-(6)-6-6-6-6-6-5-o||-1--1-(1)S6-6---(6)-6-6-15\--||
|-------------------------------||------------------------15\--||
|
| Q.         E +Q      E   S S     Q     E    S S  Q       Q
|-------------------------------||-----------------------------||
|------------------------------o||-----------------------------||
|-3-----------------------------||-3-----3----3-3--------------||
|-3----------1-(1)-----1---0-0--||-3-----3----3-3--5-----------||
|-1----------1-(1)-----1---0-0-o||-1-----1----1-1--1------15\--||
|------------1-(1)-----1---0-0--||------------1-1--1------15\--||


   Outro
    S S S S S S S S S S E S S E   S S S S S S S S S S E S S E
||------------------------------|------------------------------||
||o-----------------------------|-----------------------------o||
||------------------------------|------------------------------||
||--0-0-0-0---0-0-0-0-0---0-0---|-0-0-0-0---0-0-0-0-0---0-0----||
||o-0-0-0-0---0-0-0-0-0---0-0---|-0-0-0-0---0-0-0-0-0---0-0---o||
||--0-0-0-0---0-0-0-0-0---0-0---|-0-0-0-0---0-0-0-0-0---0-0----||


Duration Legend
---------------
W - whole; H - half; Q - quarter; E - 8th; S - 16th; T - 32nd; X - 64th; a - acciaccatura
+ - note tied to previous; . - note dotted; .. - note double dotted
Uncapitalized letters represent notes that are staccato (1/2 duration)
Irregular groupings are notated above the duration line
Duration letters will always appear directly above the note/fret number it represents the
duration for.  Duration letters with no fret number below them represent rests.  Multi-
bar rests are notated in the form Wxn, where n is the number of bars to rest for.  Low
melody durations appear below the staff

Tablature Legend
----------------
 h   - hammer-on
 p   - pull-off
 b   - bend
 pb  - pre-bend
 r   - bend release (if no number after the r, then release immediately)
 /\  - slide into or out of (from/to "nowhere")
 s   - legato slide
 S   - shift slide
  - natural harmonic
[n]  - artificial harmonic
n(n) - tapped harmonic
 ~   - vibrato
 tr  - trill
 T   - tap
 TP  - trem. picking
 PM  - palm muting
\n/  - tremolo bar dip; n = amount to dip
 \n  - tremolo bar down
 n/  - tremolo bar up
/n\  - tremolo bar inverted dip
 =   - hold bend; also acts as connecting device for hammers/pulls
 <>  - volume swell (louder/softer)
 x   - on rhythm slash represents muted slash
 o   - on rhythm slash represents single note slash

Misc Legend
-----------
 |  - bar
||  - double bar
||o - repeat start
o|| - repeat end
*|  - double bar (ending)
 :  - bar (freetime)
 $  - Segno
 &  - Coda
Tempo markers -  = BPM(8/16=s8/s16), where s8 = swing 8ths, s16 = swing 16ths

            
            
Suggest correction
Creating personal tab
Creating personal tab
You can edit any tab online and save it as your Personal.

You can edit, replace or remove any tab part or add personal notes – all changes will be seen only by you.

Personal tabs can be accessed anytime from any device, even offline.
Learn more »
comments
print report bad tab
5 comments total. Showing first comments.
0 reply
bennyhill64 150 Oct 18, 2005 02:27 PM

i don't know if you know this but actully the solo.

|-------------------|-------------------|
|-------------------|-------------------|
|--7----------------|5-----8--5---------|
|-------------------|-------------------|
|-------------------|-------------------|
|-------------------|-------------------|

well actully tony plays those notes
a bunch of times real fast.just go to www.yahoo.com
and go to music and watch the awake video you'll see

0 reply
Tias 181 Feb 28, 2006 08:23 AM

tis is better to read then the other, good work dude

-1 reply
The_Music_Man 10 Jul 01, 2007 08:44 AM

fyi godsmack has 2 guitarist and a bass not 3

guest
You may want to rate the tab now too:
select rating
Wanna post a correction for this tab? Suggest correction