Oops, an error
Loading. Please wait.

Bad Magick Bass Tab

version 2
version 2

Whole song

Interactive

246 views 1 this week
no commentswrite comment
1 2 3 4 5
please rate
add to favorites
launch autoscroll
font size
0
reset
guitar tuner
Autoscroll
slow
fast
+/-
esc
set tempo
stop
Help us to improve Ultimate-Guitar.com Take our survey!
×
Author
----------------------------------------------------------------------------
			     Bad Magick - Godsmack
----------------------------------------------------------------------------

Tabbed By : _godsmack_
e-mail: pearson1991@hotmail.com

Tuning: (low to high) D A D G

   Intro                                [x4]
G|----------|-------------|--------------||
D|----------|-------------|-------------.||
A|----------|-------------|-------------.||
D|--5--8--5-|-5--88-10-55-|--88-11-55-88-||

 Verse          [x3]                       [x3]
G|-------|------||-------||--------|-------||-------|
D|-------|-----.||-------||.-------|------.||-------|
A|-------|-----.||-------||.-------|------.||-------|
D|-5-8-5-|-5-88-||-5-8-5-||--5-8-5-|-5-88--||-5-8-5-|

  Chorus                                 [x4]
G|----------|-------------|--------------||
D|----------|-------------|-------------.||
A|----------|-------------|-------------.||
D|--5--8--5-|-5--88-10-55-|--88-11-55-88-||

 Verse                      [x3]                       [x3]
G|---------||--------|------||-------||--------|-------||-------|
D|---------||.-------|-----.||-------||.-------|------.||-------|
A|---------||.-------|-----.||-------||.-------|------.||-------|
D|-5-5-5-3-||--5-8-5-|-5-88-||-5-8-5-||--5-8-5-|-5-88--||-5-8-5-|


  Chorus                                 [x4]
G|----------|-------------|--------------||
D|----------|-------------|-------------.||
A|----------|-------------|-------------.||
D|--5--8--5-|-5--88-10-55-|--88-11-55-88-||

 Bridge            [x14]
G|----||-----------||
D|----||.---------.||
A|----||.---------.||
D|-5--||--5-5-3-5--||

 Bridge                                 [x4]
G|----------|-------------|--------------||
D|----------|-------------|-------------.||
A|----------|-------------|-------------.||
D|--5--8--5-|-5--88-10-55-|--88-11-55-88-||

 Bridge       [x14]
G||-----------||
D||.---------.||
A||.---------.||
D||--5-5-3-5--||

  Chorus                                 [x4]
G|----------|-------------|--------------||
D|----------|-------------|-------------.||
A|----------|-------------|-------------.||
D|--5--8--5-|-5--88-10-55-|--88-11-55-88-||

Guitar Solo                [x3]                       [x3]
G|---------||--------|------||-------||--------|-------||-------|
D|---------||.-------|-----.||-------||.-------|------.||-------|
A|---------||.-------|-----.||-------||.-------|------.||-------|
D|-5-5-5-3-||--5-8-5-|-5-88-||-5-8-5-||--5-8-5-|-5-88--||-5-8-5-|

  Chorus                                 [x4]
G|----------|-------------|--------------||
D|----------|-------------|-------------.||
A|----------|-------------|-------------.||
D|--5--8--5-|-5--88-10-55-|--88-11-55-88-||

 Bridge       [x7]
G||-----------||
D||.---------.||
A||.---------.||
D||--5-5-3-5--||

Suggest correction
Give kudos to tab author, rate the tab!
1 2 3 4 5
comments
print report bad tab
guest
You may want to rate the tab now too:
select rating
Please do not post tabs as comments. Select "correction" instead!