Oops, an error
Loading. Please wait.

Bad Magick Bass Tab

version 3
version 3

Whole song

Interactive

525 views 1 this week
1 commentread comment
1 2 3 4 5
please rate
add to favorites
launch autoscroll
font size
0
reset
guitar tuner
Autoscroll
slow
fast
+/-
esc
set tempo
stop
Help us to improve Ultimate-Guitar.com Take our survey!
×
Tuning
D A D G B E
G|-------------------------------------------------------------------||
D|--------------------------------------------1-------3--------------||  X2
A|-3-6-3-33-33-3-33-33-3-33-3333--3-6-3-33-333--33-333-33-3333-------||
D|-------------------------------------------------------------------||

G|-------------------------------------------------------------||
D|-------------------------------------------------------------||  X2
A|-------------------------------------------------------------||
D|-3-6-3--3-3-4--3-6-3--333-1--3-6-3--3-3-4--3-6-3~------------||

G|-------------------------------------------------------------------||
D|--------------------------------------------1-------3--------------||  X2
A|-3-6-3-33-33-3-33-33-3-33-3333--3-6-3-33-333--33-333-33-3333-------||
D|-------------------------------------------------------------------||

G|------------||
D|------------|| (Little thing played after the chorus, right before the verse)
A|------------||
D|-3--3--3--1~||

G|-------------------------------------------------------------||
D|-------------------------------------------------------------||  X2
A|-------------------------------------------------------------||
D|-3-6-3--3-3-4--3-6-3--333-1--3-6-3--3-3-4--3-6-3-------------||

G|-------------------------------------------------------------------||
D|--------------------------------------------1-------3--------------||  X2
A|-3-6-3-33-33-3-33-33-3-33-3333--3-6-3-33-333--33-333-33-3333-------||
D|-------------------------------------------------------------------||

G|----||
D|----||
A|----||
D|-3~-||

G|--------------------------------------------------------------||
D|--------------------------------------------------------------||
A|--------------------------------------------------------------||
D|-3-3-1-3--3-3-1-3--3-3-1-3------------------------------------||
									X2
G|--------------------------------------------------------------||
D|--------------------------------------------------------------||
A|--------------------------------------------------------------||
D|-3-3-1-3--3-3-1-3--3-3-1-3--3-3-1-3---------------------------||

G|--------------------------------------------------------------||
D|--------------------------------------------------------------||
A|--------------------------------------------------------------||
D|-3-3-1-3--3-3-1-3--3-3-1-3--3-3-1-3~--6~-33-13----------------||<- Play one,
 then 3.  Not 13.
									X2
G|--------------------------------------------------------------||
D|--------------------------------------------------------------||
A|--------------------------------------------------------------||
D|-3-3-1-3--3-3-1-3--3-3-1-3--3-3-1-3--333-3-/15-\1-------------||<-Slide up to 15
 and then down to 1.

G|--------------------------------------------------------------||
D|--------------------------------------------------------------||
A|--------------------------------------------------------------||
D|-3-3-1-3--3-3-1-3--3-3-1-3------------------------------------||
									X2
G|--------------------------------------------------------------||
D|--------------------------------------------------------------||
A|--------------------------------------------------------------||
D|-3-3-1-3--3-3-1-3--3-3-1-3--3-3-1-3---------------------------||

G|--------------------------------------------------------------||
D|--------------------------------------------------------------||
A|--------------------------------------------------------------||
D|-3-3-1-3--3-3-1-3--3-3-1-3--3-3-1-3~--6~-33-13----------------||<- Play one,
 then 3.  Not 13.

G|--------------------------------------------------------------||
D|--------------------------------------------------------------||
A|--------------------------------------------------------------||
D|-3-3-1-3--3-3-1-3--3-3-1-3--3-3-1-3--333-3-/15-\1-------------||<-Slide up to 15
 and then down to 1.

G|--------------------------------------------------------------||
D|--------------------------------------------------------------||
A|--------------------------------------------------------------||
D|-3-3-1-3--3-3-1-3--3-3-1-3--3-3-1-3~--6~-33-13----------------||

G|--------------------------------------------------------------||
D|--------------------------------------------------------------||
A|--------------------------------------------------------------||
D|-3-3-1-3--3-3-1-3--3-3-1-3/6~---------------------------------||

G|-------------------------------------------------------------||
D|-------------------------------------------------------------||  X2
A|-------------------------------------------------------------||
D|-3-6-3--3-3-4--3-6-3--333-1--3-6-3--3-3-4--3-6-3~------------||

G|----||
D|----||
A|----||
D|-3~-||

G|--------------------------------------------------------------||
D|--------------------------------------------------------------||
A|--------------------------------------------------------------||
D|-3-3-1-3--3-3-1-3--3-3-1-3------------------------------------||
									X2
G|--------------------------------------------------------------||
D|--------------------------------------------------------------||
A|--------------------------------------------------------------||
D|-3-3-1-3--3-3-1-3--3-3-1-3--3-3-1-3---------------------------||

G|--------------------------------------------------------------||
D|--------------------------------------------------------------||
A|--------------------------------------------------------------||
D|-3-3-1-3--3-3-1-3--3-3-1-3------------------------------------||
comments
We did not receive enough feedback on this tab! Please rate:
print report bad tab
1 2 3 4 5
1 comment total.
0 reply
The Knox 160 wrote on March 13 2010, 11:31 am

This tab sounds great.
It's a little iffy in some places but that's only in the number of times certain notes are played sometimes.

I want to post or [tab]
guest
You may want to rate the tab now too:
select rating
Please do not post tabs as comments. Select "correction" instead!