Oops, an error
Loading. Please wait.

Bad Religion Drum Tab

version 1
version 1

Whole song

Interactive

882 views 1 this week
no commentswrite comment
1 2 3 4 5
please rate
add to favorites
launch autoscroll
font size
0
reset
guitar tuner
Autoscroll
slow
fast
+/-
esc
set tempo
stop
Help us to improve Ultimate-Guitar.com Take our survey!
×
Author
Bass Drum - B


Snare Drum - S, Small Tom - t, Medium Tom - T, Floor Tom - F
o - Normal Hit

Hihat - H
x - Closed hats
o - Open Hats

Crash Cymbal - C
X - Crash


> - Above note means accent that note (Play Louder).
>>>>>>>> Above bar means crescendo (Start soft, get louder).



INTRO
S |o-o-oo-o-oo---o-|
F |o-o-oo-o-oo-----|
B |-------------0--|
  (1 + 2 + 3 + 4 + )

VERSE 1
                    ________________ ____________________ ________________
                   |1.3.            |2.                  |4.              |
C |X---------------|--------------X-|------------------X-|----------------|
H |--x-x-x-x-x-x-x-|x-x-x-x-x-o-x---|x-x-x-x-o-----------|x-x-x-x-o-------|
R |----------------|----------------|--------------------|----------------|
t |----------------|----------------|-----------oo-------|----------------|
T |----------------|----------------|-------------oo-----|------------FF--|
S |--o---o---o---o-|--o---o---oo--o-|--o---o---o-------o-|--o---o---FF--F-|
F |----------------|----------------|---------------oo---|----------------|
B |0---00-0-0-00---|0--0-0-0-0--00--|0--0-0-0---------0--|0--0-0-0-0-----0|
  (1 + 2 + 3 + 4 + |1 + 2 + 3 + 4 + |1 + 2 + 3+A3+A4+A4+A|1 + 2 + 3 + 4 + )
 
   ________________ ________________
  |5.              |6.              |
C |--------------X-|------XX--------|
S |----------------|----------o-----|
H |x-x-x-x-x-x-----|x-x-o-----------|
R |----------------|----------------|
t |----------------|----------------|
T |----------------|----------------|
S |--o---o---o---o-|--o---o---o-F---|
F |----------------|--------------F-|
B |0--0-0-0-0-d-d--|0--0-0-0-0-0-0-0|
  (1 + 2 + 3 + 4 + |1 + 2 + 3 + 4 + )

CHORUS 1:

  |----3 Times-----|
C |X---------------|----------------|
R |--x-x-x-x-x-x-x-|----------------|
S |----o-------o---|o-o-oo-o-oo---o-|
F |----------------|o-o-oo-o-oo-----|
B |0--0--0--00--0-0|-------------0--|
   1 + 2 + 3 + 4 + |1 + 2 + 3 + 4 + )

VERSE 2:
                    ____________________ ________________ ________________
                   |1.               >  |2.4.            |3.              |
C |X---------------|-----------------X--|--------------X-|----------------|
H |--x-x-x-x-x-x-x-|x-x-x-x-o-----------|x-x-x-x-x-o-x---|x-x-x-x-o-------|
R |----------------|--------------------|----------------|----------------|
t |----------------|--------------------|----------------|----------------|
T |----------------|--------------------|----------------|----------------|
S |--o---o---o---o-|--o---o----ooooooo--|--o---o---oo--o-|--o---o--------o|
F |----------------|--------------------|----------------|----------F-FF--|
B |0---00-0-0-00---|0--0-0-0------------|0--0-0-0-0--00--|0--0-0-0-0-0--0-|
  (1 + 2 + 3 + 4 + |1 + 2 + 3+A3+A4+A4+A|1 + 2 + 3 + 4 + |1 + 2 + 3 + 4 + )

   ________________________________
  |5.                              |
C |----------X-X---------------X---|
H |x---x---o-----------o-----------|
S |----o-------o-------o-ooo---o---| 
B |0-----0---0---0---0-------0---0-|
  (1 e + a 2 e + a 3 e + a 4 e + a )

CHORUS 2:

                                                              >>>>>>>>>>>>
C |X---------------|----------------|X---------------|X---X-X-------------|
R |--x-x-x-x-x-x-x-|x-x-x-x-x-x-x-x-|--x-x-x-x-x-x-x-|--x-----------------|
S |----o-------o---|----o-------o--o|----o-------o---|----o-o-oooooooooooo|
B |0--0--0--00--0-0|0--0--0--00--0--|0--0--0--00--0-0|0--0----0-----------|
  (1 + 2 + 3 + 4 + |1 + 2 + 3 + 4 + |1 + 2 + 3 + 4 + |1 + 2 + 3+A3+A4+A4+A)

C |X-----X---------|X---------------|X-----------X---|
R |- x-x---x-x-x-x-|--x-x-x-x-x-x-x-|--x-x-x-x-x-----|
S |----o-------o---|----o----o--o-oo|----o----o--o---|
B |0--0--0--00--0-0|0--0--0----0-0--|0--0--0----d----|
  (1 + 2 + 3 + 4 + |1 + 2 + 3 + 4 + |1 + 2 + 3 + 4 + )

                                    |----2 Times-----|
C |X---------------|X---X--X-XX-----|----------------|
H |--o-o-o-o-o-o-o-|----------------|----------------|
S |----o-------o---|o---o--o-oo---F-|----- REST------|
F |----------------|------------F---|----------------|
B |0--0--0---00-0-0|-000-00-0--0-0-0|----------------|
  (1 + 2 + 3 + 4 + |1 + 2 + 3 + 4 + |1 + 2 + 3 + 4 + )

BRIDGE:

C |X---------------|----------------|X-X-------------|----------------|
H |--o-o-o-o-o-o-o-|o-o-o-o-o-o-o-o-|----o-o-o-o-o-o-|o-o-o-o-o-o-o-o-|
S |----o-------o---|----o-------o-oo|----o-------o---|----o-------o---|
B |0-0----0--0----0|0-0----0--0-----|0-0----0--0----0|0-0----0--0----0|
  (1 + 2 + 3 + 4 + |1 + 2 + 3 + 4 + |1 + 2 + 3 + 4 + |1 + 2 + 3 + 4 + )

C |X---X-----------|----------------|X-X-------------|----------------|
H |--o---o-o-o-o-o-|o-o-o-o-o-o-o-o-|----o-o-o-o-o-o-|o-o-o-o-o-o-o-o-|
S |o---o-------o---|----o-------o-oo|----o-------o---|----o-------o---|
B |--0----0--0----0|0-0----0--0-----|0-0----0--0----0|0-0----0--0----0|
  (1 + 2 + 3 + 4 + |1 + 2 + 3 + 4 + |1 + 2 + 3 + 4 + |1 + 2 + 3 + 4 + )

C |----X-----------|----------X--X--|X---X-----------|----------------|
H |--o---o-o-o-o-o-|o-o-o-o-o-------|--o---o-o-o-o-o-|o-o-o-o-o-------|
S |F---o-------o---|----o----o--o--o|-o--o-------o---|----o----ooooooo|
B |-00----0--0----0|0-0----0--0--0--|0-0----0--0----0|0-0----0--------|
  (1 + 2 + 3 + 4 + |1 + 2 + 3 + 4 + |1 + 2 + 3 + 4 + |1 + 2 + 3 + 4 + )

C |----X-----------|X---------------|
H |------o-o-o-o-o-|--o-o-o-o-o-----|
S |ooo-o-------o---|----o----o--o-o-|
F |----------------|------------o-o-|
B |---d---0--0----0|0-0----0---0-0-0|
  (1 + 2 + 3 + 4 + |1 + 2 + 3 + 4 + )

OUTRO:
                                    
C |X---------------|--------------X-|----------------|--------------X-|
H |--x-x-x-x-x-x-x-|x-x-x-x-x-x-x---|x-x-x-x-x-x-x-x-|x-x-x-x-x-x-x---|
S |--o---o---o---o-|--o---o---oo--o-|--o---o---o---o-|--o---o---oo--o-|
B |0---00-0-0-00---|0--0-0-0-0--00--|0---00-0-0-00---|0--0-0-0-0--00-0|
  (1 + 2 + 3 + 4 + |1 + 2 + 3 + 4 + |1 + 2 + 3 + 4 + |1 + 2 + 3 + 4 + )

C |X---------------|--------------X-|----------------|----------X-----|
H |--x-x-x-x-x-x-x-|x-x-x-x-x-x-x---|x-x-x-x-x-x-x-x-|x-x-x-o-o---o-o-|
S |--o---o---o---o-|--o---o---oo--o-|--o---o---o---o-|--o---o---o---o-|
B |0---00-0-0-00---|0--0-0-0-0--00--|0---00-0-0-00---|0--0-0-0-0---0--|
  (1 + 2 + 3 + 4 + |1 + 2 + 3 + 4 + |1 + 2 + 3 + 4 + |1 + 2 + 3 + 4 + )

S |o-o-oo-o-o-oo-o-|o-oo-o-o-oo-----|
F |o-o-oo-o-o-oo-o-|o-oo-o-o-oo-----|
B |-d-d--d-d-d--d-d|-d--d-d-d-------|
  (1 + 2 + 3 + 4 + |1 + 2 + 3 + 4 + )
Suggest correction
What's this?
You can suggest a correction to this tab. Community and Mods will review your correction and vote to approve or reject it.
comments
We did not receive enough feedback on this tab! Please rate:
print report bad tab
1 2 3 4 5
guest
You may want to rate the tab now too:
select rating
Please do not post tabs as comments. Select "correction" instead!