Oops, an error
Loading. Please wait.

Bad Religion Bass Tab

version 2
version 2

Whole song

Interactive

2,239 views 6 this week
no commentswrite comment
1 2 3 4 5
excellent!
x 1
add to favorites
launch autoscroll
font size
0
reset
guitar tuner
Tab Pro tools
  • play this tab
  • loop segment
  • change instrument
  • show fretboard
  • metronome
Autoscroll
slow
fast
+/-
esc
set tempo
stop
Contributor
Difficulty
intermediate
Artist:Godsmack
Song:Bad Religion
Tabbed By:Gary Hricewich
E-mail:snapper2001@msn.com

 DROP D TUNING                      
INTRO 
G---------------------|
D---------------------|
A---------------------|
D---0--0--0-0--0--0-0-|
                       
                                                      
VERSE                                           6X
G---|----------------------------------------------|
D---|*--------------------------------------------*|
A---|*--------------------------------------------*|
D---|--0--0--0-0--0--0--0-0--0--0--0-0--0--0--0-0--|
                                                      
                                                                           
CHORUS START 
G-------------------|-----------------|-----------------|-----------------|
D-------------------|-----------------|-----------------|-----------------|
A---5-3-3-3-3-3-5-3-|-3-3-3-3-5-3-3-3-|-8-5-5-5-5-5-8-5-|-5-5-5-5-8-5-5-5-|
D-------------------|-----------------|-----------------|-----------------|
                                                                           
                                                                 
                          CHORUS END
G-------------------|-----------------|-------------------------|
D-------------------|-----------------|-------------------------|
A---5-3-3-3-3-3-5-3-|-3-3-3-3-5-3-3-3-|---------0-0-0-0--0-0--0-|
D-------------------|-----------------|-------------------------|
                                                                 
REPEAT VERSE 5X
REPEAT CHORUS                                                                 
                                                                           
                                                                           
  
G-------------------|-----------------|-----------------|-----------------|
D-------------------|-----------------|-----------------|-----------------|
A---8-5-5-5-5-5-8-5-|-5-5-5-5-8-5-5-5-|-5-3-3-3-3-3-5-3-|-3-3-3-3-5-3-3-3-|
D-------------------|-----------------|-----------------|-----------------|
                                                                           
                                                                     
    
G-------------------|-----------------|-----------------|-----------|
D-------------------|-----------------|-----------------|-----------|
A---8-5-5-5-5-5-8-5-|-5-5-5-5-8-5-5-5-|-5-3-3-3-3-3-5-3-|-3-3-3-3-7-|
D-------------------|-----------------|-----------------|-----------|
                                                                     
                                                     
    
G------------------|-------------|------------------|
D------------------|-------------|------------------|
A------------------|-------------|------------------|
D---7------8p7-7-7-|-7-7-8p7-7-7-|-7----5----3----2-|
                                                     
INTERLUDE/NO BASS FOR 1 MEASURE                                                     
                                                                     
                                                                   
 PART A                                                      2X
G---|------------|----------------|-----------|-----------------|
D---|*-----------|----------------|-----------|----------------*|
A---|*-5-------3-|(3)-------------|-2-------1-|(1)-------------*|
D---|----0-0-0---|---0--0-2-0-2h3-|---0-0-0---|---0--0-2-0-2h3--|
                                                                   
                                                             
 PART B                                                  1X
G-------------|----------------|-----------|----------------|
D-------------|----------------|-----------|----------------|
A---5-------3-|(3)-------------|-2-------3-|(3)-------------|
D-----0-0-0---|---0--0-2-0-2h3-|---0-0-0---|---0--0-2-0-2h3-|
                                                             
PART A 3X
PART B 1X                                                             
                                                                   
                                                
 OUTRO 
G----------------------------------------------|
D----------------------------------------------|
A----------------------------------------------|
D---0--0--0-0--0--0--0-0--0--0--0-0--0--0--0-0-|
                                                
                                                                
                                                          2X
G---|--------------------------------------------------------|
D---|*------------------------------------------------------*|
A---|*------------------------------------------------------*|
D---|--0--0--0-0--0--0--0-0--0--0--0-0--0--0--2-2-2-3-2-3-0--|
                                                                
                                                      
                                                2X/END
G---|----------------------------------------------|
D---|*--------------------------------------------*|
A---|*--------------------------------------------*|
D---|--0--0--0-0--0--0--0-0--0--0--0-0--0--0--0-0--|
                                                      
                                                      
                                                                
                                                
                                                                           
                                                      
                       
comments
We did not receive enough feedback on this tab! Please rate:
print report bad tab
1 2 3 4 5
I want to post or [tab]
guest
You may want to rate the tab now too:
select rating
Please do not post tabs as comments. Select "correction" instead!