Oops, an error
Loading. Please wait.

Bad Religion Tab

version 5
version 5

Whole song

Interactive

10,638 views 12 this week
no commentswrite comment
1 2 3 4 5
excellent!
x 6
add to favorites
launch autoscroll
font size
0
reset
how to read this tab
guitar tuner
Tab Pro tools
  • play this tab
  • loop segment
  • change instrument
  • show fretboard
  • metronome
Autoscroll
slow
fast
+/-
esc
set tempo
stop
Contributor
Difficulty
Tuning
novice
D A D G B E
Gtr I (D A D G B E) - 'git 1'
Gtr II (D A D G B E) - 'git 2'


 Intro
  Fast Rock Q=154
  D5
 4/4
  Gtrs I, II
  q  q  E E E E   E E q  H        q  q  E E E E
|---------------|-------------||----------------|
|---------------|-------------||o---------------|
|---------------|-------------||----------------|
|-0--0--0-0---0-|---0-0-------||--0--0--0-0---0-|
|-0--0--0-0---0-|---0-0-------||o-0--0--0-0---0-|
|-0--0--0-0---0-|---0-0-------||--0--0--0-0---0-|


  E E E E q  q    q  E E E E E E   E E q  H
|---------------|----------------|--------------||
|---------------|----------------|-------------o||
|---------------|----------------|--------------||
|---0---0-0--0--|-0--0-0---0---0-|---0-0--------||
|---0---0-0--0--|-0--0-0---0---0-|---0-0-------o||
|---0---0-0--0--|-0--0-0---0---0-|---0-0--------||


   Verse
          D5
   4/4
    W     q  q  E E E E   E E E E q  q    q  E E E E E E   E E q  H     3x
||----||----------------|---------------|----------------|--------------||
||o---||o---------------|---------------|----------------|-------------o||
||----||----------------|---------------|----------------|--------------||
||----||--0--0--0-0---0-|---0---0-0--0--|-0--0-0---0---0-|---0-0--------||
||o---||o-0--0--0-0---0-|---0---0-0--0--|-0--0-0---0---0-|---0-0-------o||
||----||--0--0--0-0---0-|---0---0-0--0--|-0--0-0---0---0-|---0-0--------||


  q  q  E E E E   E E E E q  q    q  E E E E E E   +W
|---------------|---------------|----------------|--------||
|---------------|---------------|----------------|--------||
|---------------|---------------|----------------|--------||
|-0--0--0-0---0-|---0---0-0--0--|-0--0-0---0---0-|-(0)----||
|-0--0--0-0---0-|---0---0-0--0--|-0--0-0---0---0-|-(0)----||
|-0--0--0-0---0-|---0---0-0--0--|-0--0-0---0---0-|-(0)----||


 Chorus (Half-Time Feel)
  D5C5                                  D5
  E E E E E E E E   E E E E E E E E   E E E E E E E E   E E E E E E E E
|-----------------|-----------------|-----------------|-----------------|
|-----------------|-----------------|-----------------|-----------------|
|-7s5-5-5-5-5-5-5-|-5-5-5-5-5-5-5-5-|-5s7-7-7-7-7-7-7-|-7-7-7-7-7-7-7-7-|
|-----x-x-x-x-x-x-|-x-x-x-x-x-x-x-x-|-----x-x-x-x-x-x-|-x-x-x-x-x-x-x-x-|
|-5s3-3-3-3-3-3-3-|-3-3-3-3-3-3-3-3-|-3s5-5-5-5-5-5-5-|-5-5-5-5-5-5-5-5-|
|-----------------|-----------------|-----------------|-----------------|


                                     1.
    C5                                D5
  E E E E E E E E   E E E E E E E E   e S S q  E E E E   E E q  H
|-----------------|-----------------|------------------|-------------|
|-----------------|-----------------|------------------|-------------|
|-7s5-5-5-5-5-5-5-|-5-5-5-5-5-5-5-5-|------------------|-------------|
|-----x-x-x-x-x-x-|-x-x-x-x-x-x-x-x-|-0-0-0-0--0-0---0-|---0-0-------|
|-5s3-3-3-3-3-3-3-|-3-3-3-3-3-3-3-3-|-0-0-0-0--0-0---0-|---0-0-------|
|-----------------|-----------------|-0-0-0-0--0-0---0-|---0-0-------|


  q  q  E E E E   E E E E q  q    q  E E E E E E   E E q  H
|---------------|---------------|----------------|--------------||
|---------------|---------------|----------------|-------------o||
|---------------|---------------|----------------|--------------||
|-0--0--0-0---0-|---0---0-0--0--|-0--0-0---0---0-|---0-0--------||
|-0--0--0-0---0-|---0---0-0--0--|-0--0-0---0---0-|---0-0-------o||
|-0--0--0-0---0-|---0---0-0--0--|-0--0-0---0---0-|---0-0--------||


  2.
  C5D5                                  C5
  E E E E E E E E   E E E E E E E E   E E E E E E E E
|-----------------|-----------------|-----------------|
|-----------------|-----------------|-----------------|
|-5s7-7-7-7-7-7-7-|-7-7-7-7-7-7-7-7-|-7s5-5-5-5-5-5-5-|
|-----x-x-x-x-x-x-|-x-x-x-x-x-x-x-x-|-----x-x-x-x-x-x-|
|-3s5-5-5-5-5-5-5-|-5-5-5-5-5-5-5-5-|-5s3-3-3-3-3-3-3-|
|-----------------|-----------------|-----------------|


                      D5
  E E E E E E E E   E E E E E E E E   E E E E E E E E
|-----------------|-----------------|-----------------|
|-----------------|-----------------|-----------------|
|-5-5-5-5-5-5-5-5-|-5s7-7-7-7-7-7-7-|-7-7-7-7-7-7-7-7-|
|-x-x-x-x-x-x-x-x-|-----x-x-x-x-x-x-|-x-x-x-x-x-x-x-x-|
|-3-3-3-3-3-3-3-3-|-3s5-5-5-5-5-5-5-|-5-5-5-5-5-5-5-5-|
|-----------------|-----------------|-----------------|


    C5                                A5   BbA5               BbA5
  E E E E E E E E   E E E E   H       H    E E E E   +Q   E E E E E E
|-----------------|-----------------|--------------|------------------|
|-----------------|-----------------|--------------|------------------|
|-7s5-5-5-5-5-5-5-|-5-5-5-5---------|--------------|------------------|
|-----x-x-x-x-x-x-|-x-x-x-x---------|--------------|------------------|
|-5s3-3-3-3-3-3-3-|-3-3-3-3-/11\----|-7----8s7-7-7-|-(7)--7-7-8s7-7-7-|
|-----------------|-----------------|-7----8S7-7-7-|-(7)--7-7-8S7-7-7-|


                           Interlude
       G5     F5   E5  D5   N.C.(D5)
  H    H      H    Q.  E     Q  Q  Q  E E
|-----------|------------||---------------|
|-----------|------------||---------------|
|-----------|------------||---------------|
|-----------|------------||---------------|
|-7----5----|-3----2p==0-||-/5----------3-|
|-7----5----|-3----2---0-||-----0--0--0---|


  +E  Q  E E E E E   Q  Q  Q  E E   +E  Q  E E E E E
|------------------|--------------|-------------------|
|------------------|--------------|-------------------|
|------------------|--------------|-------------------|
|------------------|--------------|-------------------|
|-(3)--------------|-2----------1-|-(1)---------------|
|-----0--0-2-0-2h3-|----0--0--0---|-----0--0-2-0-2h3--|


     Q  Q  Q  E E   +E  Q  E E E E E   Q  Q  Q  E E   +E  Q  E E E E E
||----------------|------------------|--------------|--------------------||
||o---------------|------------------|--------------|-------------------o||
||----------------|------------------|--------------|--------------------||
||----------------|------------------|--------------|--------------------||
||o-/5----------3-|-(3)--------------|-2----------1-|-(1)---------------o||
||------0--0--0---|-----0--0-2-0-2h3-|----0--0--0---|-----0--0-2-0-2h3---||


   Q  Q  Q  E E   +E  Q  E E E E E   Q  Q  Q  E E   +E  Q  E E E E E
|---------------|------------------|--------------|------------------||
|---------------|------------------|--------------|------------------||
|---------------|------------------|--------------|------------------||
|---------------|------------------|--------------|------------------||
|-/5----------3-|-(3)--------------|-2----------3-|-(3)--------------||
|-----0--0--0---|-----0--0-2-0-2h3-|----0--0--0---|-----0--0-2-0-2h3-||


     Q  Q  Q  E E   +E  Q  E E E E E   Q  Q  Q  E E   +E  Q  E E E E E   3x
||----------------|------------------|--------------|--------------------||
||o---------------|------------------|--------------|-------------------o||
||----------------|------------------|--------------|--------------------||
||----------------|------------------|--------------|--------------------||
||o-/5----------3-|-(3)--------------|-2----------1-|-(1)---------------o||
||------0--0--0---|-----0--0-2-0-2h3-|----0--0--0---|-----0--0-2-0-2h3---||


   Q  Q  Q  E E   +E  Q  E E E E E   Q  Q  Q  E E   +E  Q  E E E E E
|---------------|------------------|--------------|------------------||
|---------------|------------------|--------------|------------------||
|---------------|------------------|--------------|------------------||
|---------------|------------------|--------------|------------------||
|-/5----------3-|-(3)--------------|-2----------3-|-(3)--------------||
|-----0--0--0---|-----0--0-2-0-2h3-|----0--0--0---|-----0--0-2-0-2h3-||


 Outro
  D5
  q  q  E E E E   E E E E q  q    q  E E E E E E   E E q  H
|---------------|---------------|----------------|-------------|
|---------------|---------------|----------------|-------------|
|---------------|---------------|----------------|-------------|
|-0--0--0-0---0-|---0---0-0--0--|-0--0-0---0---0-|---0-0-------|
|-0--0--0-0---0-|---0---0-0--0--|-0--0-0---0---0-|---0-0-------|
|-0--0--0-0---0-|---0---0-0--0--|-0--0-0---0---0-|---0-0-------|


                                                     E5    F5E5F5D5
                                                     PM----------|
  q  q  E E E E   E E E E q  q    q  E E E E E E   E E E E E E E E
|---------------|---------------|----------------|-----------------|
|---------------|---------------|----------------|-----------------|
|---------------|---------------|----------------|-----------------|
|-0--0--0-0---0-|---0---0-0--0--|-0--0-0---0---0-|-----------------|
|-0--0--0-0---0-|---0---0-0--0--|-0--0-0---0---0-|---2-2-2-3-2-3-0-|
|-0--0--0-0---0-|---0---0-0--0--|-0--0-0---0---0-|---2-2-2-3-2-3-0-|


                                                     E5    F5E5F5D5
                                                     PM----------|
  q  q  E E E E   E E E E q  q    q  E E E E E E   E E E E E E E E
|---------------|---------------|----------------|-----------------|
|---------------|---------------|----------------|-----------------|
|---------------|---------------|----------------|-----------------|
|-0--0--0-0---0-|---0---0-0--0--|-0--0-0---0---0-|-----------------|
|-0--0--0-0---0-|---0---0-0--0--|-0--0-0---0---0-|---2-2-2-3-2-3-0-|
|-0--0--0-0---0-|---0---0-0--0--|-0--0-0---0---0-|---2-2-2-3-2-3-0-|


  q  q  E E E E   E E E E q  q    q  E E E E E E   E E H.
|---------------|---------------|----------------|-----------|
|---------------|---------------|----------------|-----------|
|---------------|---------------|----------------|-----------|
|-0--0--0-0---0-|---0---0-0--0--|-0--0-0---0---0-|---0-0-----|
|-0--0--0-0---0-|---0---0-0--0--|-0--0-0---0---0-|---0-0-----|
|-0--0--0-0---0-|---0---0-0--0--|-0--0-0---0---0-|---0-0-----|


  q  q  E E E E   E E E E q  q    q  E E E E E E   E E q  H
|---------------|---------------|----------------|-------------*|
|---------------|---------------|----------------|-------------*|
|---------------|---------------|----------------|-------------*|
|-0--0--0-0---0-|---0---0-0--0--|-0--0-0---0---0-|---0-0-------*|
|-0--0--0-0---0-|---0---0-0--0--|-0--0-0---0---0-|---0-0-------*|
|-0--0--0-0---0-|---0---0-0--0--|-0--0-0---0---0-|---0-0-------*|




--------------------------------------------------------------------------------


Duration Legend
---------------
W - whole; H - half; Q - quarter; E - 8th; S - 16th; T - 32nd; X - 64th; a - acciaccatura
+ - note tied to previous; . - note dotted; .. - note double dotted
Uncapitalized letters represent notes that are staccato (1/2 duration)
Irregular groupings are notated above the duration line
Duration letters will always appear directly above the note/fret number it represents the
duration for.  Duration letters with no fret number below them represent rests.  Multi-
bar rests are notated in the form Wxn, where n is the number of bars to rest for.  Low
melody durations appear below the staff

Tablature Legend
----------------
 h   - hammer-on
 p   - pull-off
 b   - bend
 pb  - pre-bend
 r   - bend release (if no number after the r, then release immediately)
 /\  - slide into or out of (from/to "nowhere")
 s   - legato slide
 S   - shift slide
 - natural harmonic
[n]  - artificial harmonic
n(n) - tapped harmonic
 ~   - vibrato
 tr  - trill
 T   - tap
 TP  - trem. picking
 PM  - palm muting
\n/  - tremolo bar dip; n = amount to dip
 \n  - tremolo bar down
 n/  - tremolo bar up
/n\  - tremolo bar inverted dip
 =   - hold bend; also acts as connecting device for hammers/pulls
 <> - volume swell (louder/softer)
 x   - on rhythm slash represents muted slash
 o   - on rhythm slash represents single note slash

Misc Legend
-----------
 |  - bar
||  - double bar
||o - repeat start
o|| - repeat end
*|  - double bar (ending)
 :  - bar (freetime)
 $  - Segno
 &  - Coda
Tempo markers -  = BPM(8/16=s8/s16), where s8 = swing 8ths, s16 = swing 16ths


comments
print report bad tab
I want to post or [tab]
guest
You may want to rate the tab now too:
select rating
Please do not post tabs as comments. Select "correction" instead!