Oops, an error
Loading. Please wait.

Bleeding Me Bass Tab

version 1
version 1

Whole song

Interactive

777 views 1 this week
no commentswrite comment
1 2 3 4 5
3 more votes to show rating
add to favorites
launch autoscroll
font size
0
reset
guitar tuner
Autoscroll
slow
fast
+/-
esc
set tempo
stop
Help us to improve Ultimate-Guitar.com Take our survey!
×
Author
Drop D tuning

Start 0:19
--------|
--------|
--------|
0-3-3---|


First chorus
-----------------------------------------------------------------|
-----------------------------------------------------------------|
-------------------------------------------------------------5-8-|
0---0---0333-3--8--8--8--8--8-8-0---0---03333-3--8--8--8--878----|

-----------------------------------------------------------------|
-----------------------------------------------------------------|
-----------------------------------------------------------------|
0---0---0333-3--8--8--8--8--8-8-0---0---03333-3--1---------------|


Verse
-----------------------------------------------------------------|
-----------------------------------------------------------------|
3555---55-55-555----------------3555---55-55-5555333--333/111113-|
------3-----3---3555--355-356535------3-----3--------------------|

-----------------------------------------------------------------|
-----------------------------------------------------------------|
3555---55-55-555----------------1-1-1-1-1-1-1-1-3-3-3-3-3--------|
------3-----3---3555--355-356535---------------------------------|


Second chorus (exactly like the first but with another end)
-----------------------------------------------------------------|
-----------------------------------------------------------------|
-------------------------------------------------------------5-8-|
0---0---0333-3--8--8--8--8--8-8-0---0---03333-3--8--8--8--878----|

-----------------------------------------------------------------|
-----------------------------------------------------------------|
--------------------------------0-0-0000-------------------------|
0---0---0333-3--8--8--8--8--8-8----------------------------------|


Verse


First chorus


Bridge
----------------------------------------------------------------|
----------------------------------------------------------------|
-------------------------------------------------------8--------|
0-------3-----3/8---------------0-------3-----3/8-------8-------|

-----------------------------------------------------------------|
-----------------------------------------------------------------|
-----------------------------------------------------------------|
0-------3-----3/8---------------0-------3-----3/8888888888888888-|


Play the verse during guitar solo


Then play a third version of the chorus
-----------------------------------------------------------------|
-----------------------------------------------------------------|
-------------------------------------------------------------5-8-|
0---0---0333-3--8--8--8--8--8-8-0---0---03333-3--8--8--8--878----|

------------------------------------------------------------------|
-----------------------------------------------------------3353---|
-------------------------------------------------1-13-35--5----53-|
0---0---0333-3--8--8--8--8--8-8-0---0---03333-3-------------------|


And at last play the first chorus


Note: I'm very unsure about the third chorus but that's the best I could do, so I
hope you like it!
Suggest correction
Give kudos to tab author, rate the tab!
1 2 3 4 5
comments
print report bad tab
guest
You may want to rate the tab now too:
select rating
Wanna post a correction for this tab? Suggest correction