Oops, an error
Loading. Please wait.

Bleeding Me Tab

version 1
version 1

Whole song

Interactive

6,913 views 1 this week
5 commentsread comments
1 2 3 4 5
accurate
x 3
add to favorites
launch autoscroll
font size
0
reset
how to read this tab
guitar tuner
Autoscroll
slow
fast
+/-
esc
set tempo
stop
Help us to improve Ultimate-Guitar.com Take our survey!
×
Author
Difficulty
intermediate
----------------------------------------------------------------------------
                          Bleeding Me - Godsmack
----------------------------------------------------------------------------
Tabbed by: Element215
Email: Element_2552@hotmail.com

I tried to make it easier to tell where guitar 2 comes into guitar 1 by
adding the brackets and placing the notes the way I did. Also the outro ends at the same 
even though guitar 2's part is alot longer. Let me know if theres any mistakes.. Have fun!

Tuning: DADGBe

  Guitar 1   Intro:
e|------------------------------------|------------------------------|------|
B|------------------------------------|------------------------------|------|
G|---7---------10------------10-------|---7--------10------------10~-|------|
D|--7-7---10-10--10------10----10-----|--7-7--10-10--10------10------|------|
A|-5-----8---------8p0--8--8-----8-8--|-5----8---------8p0--8--8-----|------|
D|---------------------8----------8---|--------------------8---------|------|

  Guitar 2
e|--------------------------------------------------------------------------|
B|--------------------------------------------------------------------------|
G|--------------------------------------------------------------------------|
D|--------------------------------------------------------------------------|
A|--------------------------------------------------------------------------|
D|--------------------------------------------------------------------------|

  Guitar 1
e|--------------------------------------------------------------------------|
B|--------------------------------------------------------------------------|
G|---7---------10-------------------------------9---------------------------|
D|--7-7---10-10--10------10--10--10--10------9---9-9--9---------------------|
A|-5-----8---------8p0--8--8---8---8---8----7-7---7-7--7--------------------|
D|---------------------8----8---8---8---8--7---7-----7--7-------------------|

  Guitar 2
e|--------------------------------------------------------------------------|
B|--------------------------------------------------------------------------|
G|-2/7----9-10/3--------------------------2---------------------------------|
D|--------------------------------------------------------------------------|
A|--------------------------------------------------------------------------|
D|--------------------------------------------------------------------------|

  Guitar 1
e|-----|---------------------|---------------------|------------------------|
B|-----|---------------------|---------------------|------------------------|
G|-----|---------------------|---------------------|------------------------|
D|-0h33|-00-0h3-3333-8888888-|-00-0h3-3333-8888888-|-00-0h3-3333-8888888----|
A|-0h33|-00-0h3-3333-8888888-|-00-0h3-3333-8888888-|-00-0h3-3333-8888888----|
D|-0h33|-00-0h3-3333-8888888-|-00-0h3-3333-8888888-|-00-0h3-3333-8888888----|

  Guitar 2
e|-----|------------------------------------|--------------------------------|
B|-----|------------------------------------|--------------------------------|
G|-----|----10/15-15---15--15---------------|-13/14/13-----------------------|
D|-----|------------14---14--14---14--------|--------15/17-15/14/15-15/17-15-|
A|-----|------------------------15--15/14/15|--------------------------------|
D|-----|------------------------------------|--------------------------------|

  Guitar 1
e|--------------------------------------------------------------------------|
B|--------------------------------------------------------------------------|
G|--------------------------------------------------------------------------|
D|-00-0h3-333-1~------------------------------------------------------------|
A|-00-0h3-333-1~------------------------------------------------------------|
D|-00-0h3-333-1~------------------------------------------------------------|

  Guitar 2
e|----------------------------------------|----------------------------------|
B|------15--15--15---17-17b18-15----------|----------------------------------|
G|-12/14--14--14--14------------14--------|----------------------------------|
D|--------------------------------15/14/15|15-15/17/15-15-15/14/15-12-12/13--|
A|----------------------------------------|----------------------------------|
D|----------------------------------------|----------------------------------|

  Guitar 1&2   Verse:
e|--------------------------|------------------|----------------------------|
B|--------------------------|------------------|----------------------------|
G|--------------------------|------------------|----------------------------|
D|-10h1212-14p121212-14p1212|-3h555-3h555-6p55-|-101010101010p888888h101010-|
A|-10h1212-14p121212-14p1212|-3h555-3h555-6p55-|-101010101010p888888h101010-|
D|-10h1212-14p121212-14p1212|-3h555-3h555-6p55-|-101010101010p888888h101010-|

   Guitar 1&2 Pre-Chorus:
e|--------------------------------------------------------------------------|
B|--------------------------------------------------------------------------|
G|--------------------------------------------------------------------------|
D|-88888888-101010101010-0h33-----------------------------------------------|
A|-88888888-101010101010-0h33-----------------------------------------------|
D|-88888888-101010101010-0h33-----------------------------------------------|

  Guitar 1&2   Chorus:
e|--------------------------------------------------------------------------|
B|--------------------------------------------------------------------------|
G|--------------------------------------------------------------------------|
D|-00-0h3-3333-8888888--00-0h3-3333-8888888--00-0h3-3333-8888888-7777777----|
A|-00-0h3-3333-8888888--00-0h3-3333-8888888--00-0h3-3333-8888888-7777777----|
D|-00-0h3-3333-8888888--00-0h3-3333-8888888--00-0h3-3333-8888888-7777777----|


Guitar 1&2   Verse:
e|--------------------------|------------------|----------------------------|
B|--------------------------|------------------|----------------------------|
G|--------------------------|------------------|----------------------------|
D|-10h1212-14p121212-14p1212|-3h555-3h555-6p55-|-101010101010p888888h101010-|
A|-10h1212-14p121212-14p1212|-3h555-3h555-6p55-|-101010101010p888888h101010-|
D|-10h1212-14p121212-14p1212|-3h555-3h555-6p55-|-101010101010p888888h101010-|

   Guitar 1&2 Pre-Chorus:
e|--------------------------------------------------------------------------|
B|--------------------------------------------------------------------------|
G|--------------------------------------------------------------------------|
D|-88888888-101010101010-0h33-----------------------------------------------|
A|-88888888-101010101010-0h33-----------------------------------------------|
D|-88888888-101010101010-0h33-----------------------------------------------|

  Guitar 1&2   Chorus:
e|--------------------------------------------------------------------------|
B|--------------------------------------------------------------------------|
G|--------------------------------------------------------------------------|
D|-00-0h3-3333-8888888--00-0h3-3333-8888888--00-0h3-3333-8888888-7777777----|
A|-00-0h3-3333-8888888--00-0h3-3333-8888888--00-0h3-3333-8888888-7777777----|
D|-00-0h3-3333-8888888--00-0h3-3333-8888888--00-0h3-3333-8888888-7777777----|

  Guitar 1&2             Bridge:
e|------------------------------------|------------------------------|------|
B|------------------------------------|------------------------------|------|
G|---7---------10------------10-------|---7--------10------------10~-|------|
D|--7-7---10-10--10------10----10-----|--7-7--10-10--10------10------|------|
A|-5-----8---------8p0--8--8-----8-8--|-5----8---------8p0--8--8-----|------|
D|---------------------8----------8---|--------------------8---------|------|

e|------------------------------------|-------------------------------------|
B|------------------------------------|-------------------------------------|
G|---7---------10------------10-------|---7--------10-----------------------|
D|--7-7---10-10--10------10----10-----|--7-7--10-10--10----8888888888888888-|
A|-5-----8---------8p0--8--8-----8-8--|-5----8---------8p0-8888888888888888-|
D|---------------------8----------8---|--------------------8888888888888888-|

             Solo:
e|---------------------------------------------------------------------------|
B|-13/1515151515-13/1515151515-13/1515-13/1515-13/15151515----------13-------|
G|---------------------------------------------------------13/14141414-------|
D|---------------------------------------------------------------------14/15-|
A|---------------------------------------------------------------------------|
D|---------------------------------------------------------------------------|

e|--------------------------------------------------------------------------|
B|---15-15---------------------------17/18/15-15--17/18/17/18/17/-17/15-15--|
G|---------10/12-14/12-10------12-14----------------------------------------|
D|-12--------------------14/10----------------------------------------------|
A|--------------------------------------------------------------------------|
D|--------------------------------------------------------------------------|

e|--------------------------------------------------------------------------|
B|--------15--15--15---15/17/15-15------------------------------------------|
G|------14--14--14----------------14----------------------------------------|
D|-14/15------------15---------------15-------------------------------------|
A|--------------------------------------------------------------------------|
D|--------------------------------------------------------------------------|


  Guitar 1  Outro:
e|---------------------------------------------------------------------------|
B|---------------------------------------------------------------------------|
G|---------------------------------------------------------------------------|
D|-00-0h3-3333-8888888--00-0h3-3333-8888888--00-0h3-3333-8888888-------------|
A|-00-0h3-3333-8888888--00-0h3-3333-8888888--00-0h3-3333-8888888-------------|
D|-00-0h3-3333-8888888--00-0h3-3333-8888888--00-0h3-3333-8888888-------------|

  Guitar 2
e|--------------------------------------------------------------------------|
B|--------------------------------------------------------------------------|
G|--------------------------------------------------------------------------|
D|--------------------------------------------------------------------------|
A|--------------------------------------------------------------------------|
D|--------------------------------------------------------------------------|

  Guitar 1
e|--------------------------------------------------------------------------|
B|--------------------------------------------------------------------------|
G|--------------------------------------------------------------------------|
D|-00-0h3-3333-8888888--00-0h3-3333-8888888--00-0h3-3333-8888888------------|
A|-00-0h3-3333-8888888--00-0h3-3333-8888888--00-0h3-3333-8888888------------|
D|-00-0h3-3333-8888888--00-0h3-3333-8888888--00-0h3-3333-8888888------------|

 Guitar 2
e|--------------------------------------------------------------------------|
B|------15--15--15--15--15--------------------------------------------------|
G|-12/14--14--14--14--14--14--14---------12/14/12-10/12/10-9-10-10/12/10----|
D|--------------------------15--15/14/15------------------------------------|
A|--------------------------------------------------------------------------|
D|--------------------------------------------------------------------------|

 Guitar 1
e|--------------------------------------------------------------------------|
B|--------------------------------------------------------------------------|
G|--------------------------------------------------------------------------|
D|-00-0h333-1~--------------------------------------------------------------|
A|-00-0h333-1~--------------------------------------------------------------|
D|-00-0h333-1~--------------------------------------------------------------|

 Guitar 2
e|--------------------------------------------------------------------------|
B|------15--15--15--15-17b18-15---------------------------------------------|
G|-12/14--14--14--14-----------14---------------14--------------------------|
D|-------------------------------15/14/15--14/15--15/14/15-12-13~/3---------|
A|--------------------------------------------------------------------------|
D|--------------------------------------------------------------------------|

| /  slide up
| \  slide down
| h  hammer-on
| p  pull-off
| ~  vibrato
| +  harmonic
| x  Mute note
===============================================================================
Suggest correction
Give kudos to tab author, rate the tab!
1 2 3 4 5
comments
print report bad tab
5 comments total. Showing first comments.
0 reply
alterbridge1988 143 wrote on June 9 2006, 08:48 pm

Okay it's already pretty good at Guitar 1 Intro and the Chorus. But you gotta work on Guitar 2. This whole Solo-like stuff that Tony Rombola is playing is played with a bottle neck, maybe you should write that to the tab ;-) and guitar 2 is way to low. It doesn't fit to Guitar 1. Try something on the B and e string. I'm also already trying but I couldn't find it yet. But keep trying it's a good song! You're gonna make it!

0 reply
Andrew Zara 41,509 wrote on October 17 2006, 03:05 pm

Tony uses a slide guitar for this song, so the guitar 2 'solo' part is completely off. Work on that.

0 reply
Rock*Star 10 wrote on October 17 2006, 06:37 pm

Like these other users said, it's a slide guitar, but atleast you could put that you need to slide here and there... it just makes it confusing to play otherwise.

guest
You may want to rate the tab now too:
select rating
Wanna post a correction for this tab? Suggest correction