Oops, an error
Loading. Please wait.

Changes Bass Tab

version 2
version 2

Whole song

Interactive

300 views 1 this week
no commentswrite comment
1 2 3 4 5
1 last vote to show rating
add to favorites
launch autoscroll
font size
0
reset
guitar tuner
Autoscroll
slow
fast
+/-
esc
set tempo
stop
Help us to improve Ultimate-Guitar.com Take our survey!
×
Author
Difficulty
Tuning
intermediate
D A D G B E
Band- Godsmack
Song- Changes
Tuning- Drop D

Notes: Tabbed from the Live & Inspired cd. I didn't tab every note, but it is pretty close.

Intro

G|-------------------------|--------------|-----------------------|-
D|-------------------------|--------------|-----------------------|-
A|-3-5--3-5--3-5--3-5--3-5-|-1~----1--1-3-|-----------------------|-
D|0----0----0----0----0----|------0--0----|-0-7-8--0-5-7--0-3-5-5-|-


-|---------------------------|-------------|--------------------| x2
-|---------------------------|-------------|--------------------|
-|-3-5--3-5--3-5--3-5--3-5-3-|-1--1--1-3---|--------------------|
-|0----0----0----0----0------|--0--0-----0-|-7~--0-5-7--0-3-5-5-|


Interlude

G|--------------------|-----------|
D|--------------------|-----------|
A|--------------------|-6-6-6-6-6-|
D|0--6--0--6-6-0--6-0-|-----------|


Verse #1
   All or nothing...
G|----------------------------|-------------------------|
D|----------------------------|-------------------------|
A|----------------------------|-------------------------|
D|0-6-0-0-6--0-0-6--0-0-3-6-5-|0-6-0-0-6--0-0-6--0-0-1~-|

   And all for nothing...
G|----------------------------|-------------------------|
D|----------------------------|-------------------------|
A|----------------------------|----------------------6~-|
D|0-6-0-0-6--0-0-6--0-0-3-6-5-|0-6-0-0-6--0-0-6--0-0----|

   Don't look down on me...
G|----------------------------|-------------------------|
D|----------------------------|-------------------------|
A|----------------------------|-------------------------|
D|0-6-0-0-6--0-0-6--0-0-3-6-5-|0-6-0-0-6--0-0-6--0-0-1~-|

   You talk down to me...
G|--------------------------|----------------------------------|
D|--------------------------|----------------------------------|
A|------------------------1-|-1-1-1-1-1-1------------3-3-3-3-3-|
D|0-6-0-0-6--0-0-6--0-0-0---|--------------3-3-3-3-3-----------|

Chorus

G|-------------------------|--------------|-----------------------|-
D|-------------------------|--------------|-----------------------|-
A|-3-5--3-5--3-5--3-5--3-5-|-1~----1--1-3-|-----------------------|-
D|0----0----0----0----0----|------0--0----|-0-7-8--0-5-7--0-3-5-5-|-


-|---------------------------|------|------|-------|
-|---------------------------|------|------|-------|
-|-3-5--3-5--3-5--3-5--3-5-3-|-1~---|-0~---|-------|
-|0----0----0----0----0------|------|------|-3-3-3-|


Interlude

G|------------------------|----------------------|
D|------------------------|----------------------|
A|----------------------1-|----------------------|
D|0-6-0-0-6--0-0-6--0-0---|0-6-0-0-6--0-0-6------|

Verse #2
   Bow down to me...
G|----------------------------|-------------------------|
D|----------------------------|-------------------------|
A|----------------------------|-------------------------|
D|0-6-0-0-6--0-0-6--0-0-3-6-5-|0-6-0-0-6--0-0-6--0-0-1~-|

   Vows are ruined...
G|--------------------------|------------------------------|
D|--------------------------|------------------------------|
A|------------------------1-|-1-1-1-1-1-1------------3-3-3-|
D|0-6-0-0-6--0-0-6--0-0-0---|--------------3-3-3-3-3-------|

   Better off you than me...
G|----------------------------|-------------------------|
D|----------------------------|-------------------------|
A|----------------------------|-------------------------|
D|0-6-0-0-6--0-0-6--0-0-3-6-5-|0-6-0-0-6--0-0-6--0-0-1~-|

   A long time brewing...
G|--------------------------|------------------------------|
D|--------------------------|------------------------------|
A|------------------------1-|-1-1-1-1-1-1------------3-3-3-|
D|0-6-0-0-6--0-0-6--0-0-0---|--------------3-3-3-3-3-------|


Chorus #2

G|-------------------------|--------------|-----------------------|-
D|-------------------------|--------------|-----------------------|-
A|-3-5--3-5--3-5--3-5--3-5-|-1~----1--1-3-|-----------------------|-
D|0----0----0----0----0----|------0--0----|-0-7-8--0-5-7--0-3-5-5-|-


-|---------------------------|-------------|--------------------| x2
-|---------------------------|-------------|--------------------|
-|-3-5--3-5--3-5--3-5--3-5-3-|-1--1--1-3---|--------------------|
-|0----0----0----0----0------|--0--0-----0-|-7~--0-5-7--0-3-5-5-|


Interlude, pre-guitar solo

G|-------------|---------7-5---|
D|-------------|-------------6-|
A|-------------|---------------|
D|0--6--0--6-6-|0--6-0---------|

G|------------------|---------------|
D|------------------|---------------|
A|------------------|---------------|
D|0--6--0-0-0--6-6--|0--6-0-0-0--6-3|


Guitar solo starts, slowly
G|---------------------|-------------|
D|---------------------|-------------|
A|---------------3-5---|-------------|
D|0--6--0-0-0--6-----6-|0--6-0-000---|


Guitar Solo

G|------------------|---------------------|
D|------------------|---------------------|
A|------------------|---------------------|
D|5-3--5--5-5-5-8-8-|5--555-3-5-5-8-8-8-8-|

G|------------------|--------------------------|
D|------------------|--------------------------|
A|------------------|--------------------------|
D|0-3--0--0-0-0-1-1-|0--0-0-0-3--0-0-0-1-1-1-1-|

G|------------------|----------------------|
D|------------------|----------------------|
A|------------------|----------------------|
D|5-3--5--5-5-5-8-8-|5--555-3-5-5--8-8-8-8-|


G|------------------|------------------------|
D|------------------|------------------------|
A|------------------|------------------------|
D|0-3--0--0-0-0-1-1-|0-0-0-0-3--0--0-0-0--1--|

Pre-Chorus

G|-------------------------|--------------|-----------------------|-
D|-------------------------|--------------|-----------------------|-
A|-3-5--3-5--3-5--3-5--3-5-|-1~----1--1-3-|-----------------------|-
D|0----0----0----0----0----|------0--0----|-0-7-8--0-5-7--0-3-5-5-|-


-|---------------------------|------|------|
-|---------------------------|------|------|
-|-3-5--3-5--3-5--3-5--3-5-3-|-1~---|-0~---|
-|0----0----0----0----0------|------|------|


Chorus #3

G|-------------------------|--------------|-----------------------|-
D|-------------------------|--------------|-----------------------|-
A|-3-5--3-5--3-5--3-5--3-5-|-1~----1--1-3-|-----------------------|-
D|0----0----0----0----0----|------0--0----|-0-7-8--0-5-7--0-3-5-5-|-


-|---------------------------|-------------|--------------------| x2
-|---------------------------|-------------|--------------------|
-|-3-5--3-5--3-5--3-5--3-5-3-|-1--1--1-3---|--------------------|
-|0----0----0----0----0------|--0--0-----0-|-7~--0-5-7--0-3-5-5-|

G|-------------------------|--------------|-----------------------|-
D|-------------------------|--------------|-----------------------|-
A|-3-5--3-5--3-5--3-5--3-5-|-1~----1--1-3-|-----------------------|-
D|0----0----0----0----0----|------0--0----|-0-7-8--0-5-7--0-3-5-5-|-


-|---------------------------|------|------|
-|---------------------------|------|------|
-|-3-5--3-5--3-5--3-5--3-5-3-|-1~---|-0~---|
-|0----0----0----0----0------|------|------|


Outro

G|-------------|---------------|
D|-------------|---------------|
A|-------------|---------------|
D|0--6--0--6-6-|0--6-0-0-0--6-3|

G|-------------------|--------------------|
D|-------------------|--------------------|
A|--------------3-5--|----------5----3-5--|
D|0--6--0-0-0--6---6-|0--6--0--0-0--6---6-|
Suggest correction
Give kudos to tab author, rate the tab!
1 2 3 4 5
comments
print report bad tab
guest
You may want to rate the tab now too:
select rating
Wanna post a correction for this tab? Suggest correction