Oops, an error
Loading. Please wait.

Dead And Broken Tab

version 2
version 2

Whole song

Interactive

2,936 views 1 this week
1 commentread comment
1 2 3 4 5
excellent!
x 3
add to favorites
launch autoscroll
font size
0
reset
how to read this tab
guitar tuner
Autoscroll
slow
fast
+/-
esc
set tempo
stop
Help us to improve Ultimate-Guitar.com Take our survey!
×
Author
Band- Godsmack
Song- Dead And Broken
Album- Faceless

  D5                   Eb5                  F5                   G5
      0 0 x x x x          1 1 1 x x x          3 3 3 x x x          5 5 5 x x x

          Ab5                  Bb5                  C5                  D5XII
      6 6 x x x x          8 8 x x x x         10 10 x x x x        12 12 x x x x

        Eb5XIII               F5XV            D5open(type 2)
     13 13 x x x x        15 15 x x x x         x x 0 2 3 x

Gtr I (C G C F A D) - 'Tony Rombola'
Gtr II (C G C F A D) - 'Tony Rombola'
Gtr III (C G C F A D) - 'Sully Erna'

 Intro
  Q=76
          N.C.
 1/4     4/4
  Gtr I
  E E      S S S S  S S S  S S  S S S  S S  S S
|------||---------------------------------------|
|------||---------------------------------------|
|------||---------------------------------------|
|------||---------------------------------------|
|------||---------------------------------------|
|---5/-||-12-0-0-0-13-0-0-15-0-13-0-0-12-0-10-0-|


   S S S S  S S S  S S  S S S  Q
|---------------------------------|
|---------------------------------|
|---------------------------------|
|---------------------------------|
|---------------------------------|
|-12-0-0-0-13-0-0-15-0-13-0-0-10--|


   S S S S  S S S  S S  S S S  S S  S S    S S S S  S S S  S S S  Q  E
|---------------------------------------|-------------------------------|
|---------------------------------------|-------------------------------|
|---------------------------------------|-------------------------------|
|---------------------------------------|-------------------------------|
|---------------------------------------|-------------------------------|
|-12-0-0-0-13-0-0-15-0-13-0-0-12-0-10-0-|-12-0-0-0-13-0-0-15-0-0-10--3/-|


  Gtrs I, III
   S S S S  S S S  S S  S S S  S S  S S    S S S S  S S S  S S  S S S  Q
|---------------------------------------|---------------------------------|
|---------------------------------------|---------------------------------|
|---------------------------------------|---------------------------------|
|---------------------------------------|---------------------------------|
|---------------------------------------|---------------------------------|
|-12-0-0-0-13-0-0-15-0-13-0-0-12-0-10-0-|-12-0-0-0-13-0-0-15-0-13-0-0-10--|


                                            G5              F5
   S S S S  S S S  S S  S S S  S S  S S   S S S S S S S S S S E +Q
|---------------------------------------|----------------------------||
|---------------------------------------|----------------------------||
|---------------------------------------|----------------------------||
|---------------------------------------|---5-5-5-5-5-5-5---3-3-(3)--||
|---------------------------------------|---5-5-5-5-5-5-5---3-3-(3)--||
|-12-0-0-0-13-0-0-15-0-13-0-0-12-0-10-0-|-0-5-5-5-5-5-5-5---3-3-(3)--||


    D5       Eb5    F5   Eb5    D5   C5     D5       Eb5    F5   Eb5    C5
     S S S S  S S S  S S  S S S  S S  S S    S S S S  S S S  S S  S S S  Q
||----------------------------------------|----------------------------------|
||o---------------------------------------|----------------------------------|
||----------------------------------------|----------------------------------|
||----------------------------------------|----------------------------------|
||o-12-------13-----15---13-----12---10---|-12-------13-----15---13-----10---|
||--12-0-0-0-13-0-0-15-0-13-0-0-12-0-10-0-|-12-0-0-0-13-0-0-15-0-13-0-0-10---|


  D5       Eb5    F5   Eb5    D5   C5
   S S S S  S S S  S S  S S S  S S  S S
|---------------------------------------|
|---------------------------------------|
|---------------------------------------|
|---------------------------------------|
|-12-------13-----15---13-----12---10---|
|-12-0-0-0-13-0-0-15-0-13-0-0-12-0-10-0-|


 1.                                2.
    G5              F5                G5              F5
  S S S S S S S S S S E S S S S     S S S S S S S S S S E +Q
|--------------------------------||-----------------------------||
|-------------------------------o||-----------------------------||
|--------------------------------||-----------------------------||
|---5-5-5-5-5-5-5---3-3-3-3-3-3--||---5-5-5-5-5-5-5---3-3-(3)---||
|---5-5-5-5-5-5-5---3-3-3-3-3-3-o||---5-5-5-5-5-5-5---3-3-(3)---||
|-0-5-5-5-5-5-5-5---3-3-3-3-3-3--||-0-5-5-5-5-5-5-5---3-3-(3)---||


   Verse
    D5
    Gtr I
    PM----------------------|             PM----------------------|
    S S S S S T T S S S S S S  S  S  E    S S S S S T T S S S S S S  S  S  E
||--------------------------------------|--------------------------------------|
||o-------------------------------------|--------------------------------------|
||----------------------------------13\-|---------------------------------10\--|
||-------------------------------12-----|------------------------------12------|
||o-0-0---0-0-----0-0---0---0-11--------|-0-0---0-0-----0-0---0---0-11---------|
||--0-0---0-0-3-3-0-0---0---0-----------|-0-0---0-0-3-3-0-0---0---0------------|


  PM----------------------|
  S S S S S T T S S S S S S  S  S  E
|-------------------------------------|
|-------------------------------------|
|---------------------------------13\-|
|------------------------------12-----|
|-0-0---0-0-----0-0---0---0-11--------|
|-0-0---0-0-3-3-0-0---0---0-----------|


                      Eb5
  PM--------------|
  S S S S S T T S S S   S  S  S  S  S  S  S
|--------------------------------------------|
|--------------------------------------------|
|--------------------------------------------|
|--------------------------------------------|
|-0-0---0-0-----0-0---/13-13-13-13-13-13-13--|
|-0-0---0-0-3-3-0-0---/13-13-13-13-13-13-13--|


    D5
    PM------|   PM  PM--|               PM------|   PM  PM--|
  S S S S S S S S S S S S  S  S  E    S S S S S S S S S S S S  S  S  E
|-----------------------------------|-----------------------------------|
|-----------------------------------|-----------------------------------|
|-------------------------------13\-|-------------------------------10\-|
|----------------------------12-----|----------------------------12-----|
|---0-0---0-0---0---0-0---11--------|---0-0---0-0---0---0-0---11--------|
|---0-0---0-0---0---0-0-------------|---0-0---0-0---0---0-0-------------|


                                                        Eb5                D5
    PM------|   PM  PM--|               PM------|   PM
  S S S S S S S S S S S S  S  S  E    S S S S S S S S S   S  S  S  S  S  S S
|-----------------------------------|-----------------------------------------||
|-----------------------------------|-----------------------------------------||
|-------------------------------13\-|-----------------------------------------||
|----------------------------12-----|--------------------------------------0--||
|---0-0---0-0---0---0-0---11--------|---0-0---0-0---0---/13-13-13-13-13-13-0--||
|---0-0---0-0---0---0-0-------------|---0-0---0-0---0---/13-13-13-13-13-13-0--||


 Chorus
  $
             G5Ab5 F5Ab5 G5D5             EbF5  EbF5  Eb5
  +E  E S E. S S S S S S S S   +E  E S E. S S S S S S S   S
|----------------------------|------------------------------|
|-----3-3-3------------------|-----3-3-3--------------------|
|-----2-2-2------------------|-----2-2-2--------------------|
|-(0)-0-0-0----------------0-|-(0)-0-0-0--------------------|
|-(0)--------5-6-6-3-6-6-5-0-|-(0)--------1-3-3-1-3-3-1-----|
|-(0)--------5-6-6-3-6-6-5-0-|-(0)--------1-3-3-1-3-3-1-/12-|


  N.C.                                                                C5  D5
   +S  E S  S S S  S S  S S S  S S  S S    S S S S  S S S  S S  S S S  E. S
|---------------------------------------|-----------------------------------|
|---------------------------------------|-----------------------------------|
|---------------------------------------|-----------------------------------|
|---------------------------------------|---------------------------------0-|
|---------------------------------------|-----------------------------10--0-|
|-(12)-0-0-13-0-0-15-0-13-0-0-12-0-10-0-|-12-0-0-0-13-0-0-15-0-13-0-0-10--0-|


             G5Ab5 F5Ab5 G5D5             EbF5  EbF5  Eb5
  +E  E S E. S S S S S S S S   +E  E S E. S S S S S S S   S
|----------------------------|------------------------------|
|-----3-3-3------------------|-----3-3-3--------------------|
|-----2-2-2------------------|-----2-2-2--------------------|
|-(0)-0-0-0----------------0-|-(0)-0-0-0--------------------|
|-(0)--------5-6-6-3-6-6-5-0-|-(0)--------1-3-3-1-3-3-1-----|
|-(0)--------5-6-6-3-6-6-5-0-|-(0)--------1-3-3-1-3-3-1-/12-|


                                         1.
                               To Coda
  N.C.
   +S  E S  S S S  S S  S S S  S S  S S    S S S S  S S S  S S S  e Q
|---------------------------------------|------------------------------|
|---------------------------------------|------------------------------|
|---------------------------------------|------------------------------|
|---------------------------------------|------------------------------|
|---------------------------------------|------------------------------|
|-(12)-0-0-13-0-0-15-0-13-0-0-12-0-10-0-|-12-0-0-0-13-0-0-15-0-0-10----|


  Gtr I
   S S S S  S S S  S S  S S S  S S  S S    S S S S  S S S  S S  S S S  Q
|---------------------------------------|---------------------------------|
|---------------------------------------|---------------------------------|
|---------------------------------------|---------------------------------|
|---------------------------------------|---------------------------------|
|---------------------------------------|---------------------------------|
|-12-0-0-0-13-0-0-15-0-13-0-0-12-0-10-0-|-12-0-0-0-13-0-0-15-0-13-0-0-10--|
|
| Gtr II
|  TP                                      TP                TP
|  W                                       H                 H
|---------------------------------------|---------------------------------|
|---------------------------------------|---------------------------------|
|--7------------------------------------|--8-----------------5------------|
|---------------------------------------|---------------------------------|
|---------------------------------------|---------------------------------|
|---------------------------------------|---------------------------------|


   S S S S  S S S  S S  S S S  S S  S S
|---------------------------------------|
|---------------------------------------|
|---------------------------------------|
|---------------------------------------|
|---------------------------------------|
|-12-0-0-0-13-0-0-15-0-13-0-0-12-0-10-0-|
|
|  TP
|  W
|---------------------------------------|
|---------------------------------------|
|--7------------------------------------|
|---------------------------------------|
|---------------------------------------|
|---------------------------------------|


     G5                  F5
   S S S S  S S S S   S  S  E S S S S
|---------------------------------------||
|--------------------------------------o||
|---------------------------------------||
|----5-5-5--5-5-5-5------3--3-3-3-3-3---||
|----5-5-5--5-5-5-5------3--3-3-3-3-3--o||
|--0-5-5-5--5-5-5-5------3--3-3-3-3-3---||
|
|  TP       TP
|  Q        Q        +E     Q     E
|---------------------------------------||
|----------14-------(14)---14----------o||
|-12-----------------------12-----------||
|---------------------------------------||
|--------------------------------------o||
|---------------------------------------||


                                       Bridge
  2.
  N.C.                        C5   G5             Bb5         C5
  Gtr I
   S S S S  S S S  S S  S S S  E S S    +E  E S E S +E  E S E  S
|------------------------------------||--------------------------|
|------------------------------------||--------------------------|
|------------------------------------||--------------------------|
|------------------------------------||--------------------------|
|-----------------------------10-x-5-||-(5)-5-5-5-8-(8)-8-8-8-10-|
|-12-0-0-0-13-0-0-15-0-13-0-0-10-x-5-||-(5)-5-5-5-8-(8)-8-8-8-10-|


     D5    C5 D5    C5 D5    C5 D5    C5 D5        G5       Bb5         C5
   S  S  S  S  S  S  S  S  S  S  S  S  S  S  S S   E. S S S E +E  E S E  S
|------------------------------------------------|-------------------------|
|------------------------------------------------|-------------------------|
|------------------------------------------------|-------------------------|
|------------------------------------------------|-------------------------|
|-10-12-12-10-12-12-10-12-12-10-12-12-10-12-12-x-|-5--5-5-5-8-(8)-8-8-8-10-|
|-10-12-12-10-12-12-10-12-12-10-12-12-10-12-12-x-|-5--5-5-5-8-(8)-8-8-8-10-|


  C5 D5    C5 D5    C5 D5    Eb5         C5         G5       Bb5         C5
   S  S  S  S  S  S  S  S  S  S  S  S  S  S  S  S   E. S S S E +E  E S E  S
|-------------------------------------------------|-------------------------|
|-------------------------------------------------|-------------------------|
|-------------------------------------------------|-------------------------|
|-------------------------------------------------|-------------------------|
|-10-12-12-10-12-12-10-12-12-13-13-13-13-10-10-10-|-5--5-5-5-8-(8)-8-8-8-10-|
|-10-12-12-10-12-12-10-12-12-13-13-13-13-10-10-10-|-5--5-5-5-8-(8)-8-8-8-10-|


  C5 D5    C5 D5    C5 D5    C5 D5    C5 D5        G5       Bb5
   S  S  S  S  S  S  S  S  S  S  S  S  S  S  S S   E. S S S E +S  S E E S S
|------------------------------------------------|---------------------------|
|------------------------------------------------|---------------------------|
|------------------------------------------------|---------------------------|
|------------------------------------------------|---------------------------|
|-10-12-12-10-12-12-10-12-12-10-12-12-10-12-12-x-|-5--5-5-5-8-(8)-8-8-8-8-x--|
|-10-12-12-10-12-12-10-12-12-10-12-12-10-12-12-x-|-5--5-5-5-8-(8)-8-8-8-8-x--|


             Interlude
  Eb5         N.C.
  Gtr I
               PM------------------------------------
  W            S S S S  S S S  S S  S S S  S S  S S
|----------||---------------------------------------|
|----------||---------------------------------------|
|----------||---------------------------------------|
|-1--------||---------------------------------------|
|-1--------||---------------------------------------|
|-1--------||-12-0-0-0-13-0-0-15-0-13-0-0-12-0-10-0-|
|
| Gtr II
| W            W
|----------||-29------------------------------------|
|----------||---------------------------------------|
|----------||---------------------------------------|
|----------||---------------------------------------|
|----------||---------------------------------------|
|----------||---------------------------------------|


 ----------------------------|
   S  S S S  S S S  S S  S S S  Q
|------------------------------------|
|------------------------------------|
|------------------------------------|
|------------------------------------|
|------------------------------------|
|-12--0-0-0-13-0-0-15-0-13-0-0-10----|
|
|  H.                           Q
|-29---------------------------27s===|
|------------------------------------|
|------------------------------------|
|------------------------------------|
|------------------------------------|
|------------------------------------|


   PM------------------------------------
   S S S S  S S S  S S  S S S  S S  S S
|---------------------------------------|
|---------------------------------------|
|---------------------------------------|
|---------------------------------------|
|---------------------------------------|
|-12-0-0-0-13-0-0-15-0-13-0-0-12-0-10-0-|
|
|  H                 S  E.     E    E
|-29-------------------27s====29---27s==|
|---------------------------------------|
|---------------------------------------|
|---------------------------------------|
|---------------------------------------|
|---------------------------------------|


 -------------------------------------|
   S S S S  S S S  S S  S S S  S S  S S
|---------------------------------------|
|---------------------------------------|
|---------------------------------------|
|---------------------------------------|
|---------------------------------------|
|-12-0-0-0-13-0-0-15-0-13-0-0-12-0-10-0-|
|
|  Q        Q        E    E    E    E
|-29------------------------------------|
|---------------------------------------|
|-------------------------5s===7s===5s==|
|---------------------------------------|
|---------------------------------------|
|---------------------------------------|


   PM---------------------------------------------------------------|
   S S S S  S S S  S S  S S S  S S  S S    S S S S  S S S  S S  S S S  Q
|---------------------------------------|---------------------------------|
|---------------------------------------|---------------------------------|
|---------------------------------------|---------------------------------|
|---------------------------------------|---------------------------------|
|---------------------------------------|---------------------------------|
|-12-0-0-0-13-0-0-15-0-13-0-0-12-0-10-0-|-12-0-0-0-13-0-0-15-0-13-0-0-10--|
|
|                    TP                    TP                TP
|  H                 H                     H                 H
|---------------------------------------|---------------------------------|
|---------------------------------------|---------------------------------|
|--7-----------------7------------------|--8-----------------5------------|
|---------------------------------------|---------------------------------|
|---------------------------------------|---------------------------------|
|---------------------------------------|---------------------------------|


                                                                D.S. al Coda
                                             G5                  F5         D5
   S S S S  S S S  S S  S S S  S S  S S    S S S S  S S S S   S  S  E +E.   S
|---------------------------------------|-------------------------------------||
|---------------------------------------|-------------------------------------||
|---------------------------------------|-------------------------------------||
|---------------------------------------|----5-5-5--5-5-5-5------3--3-(3)---0-||
|---------------------------------------|----5-5-5--5-5-5-5------3--3-(3)---0-||
|-12-0-0-0-13-0-0-15-0-13-0-0-12-0-10-0-|--0-5-5-5--5-5-5-5------3--3-(3)---0-||
|
|  TP                                      TP       TP        TP
|  W                                       Q        Q        +E     Q     E
|---------------------------------------|-------------------------------------||
|---------------------------------------|----------14-------(14)---14---------||
|--7------------------------------------|-12-----------------------12---------||
|---------------------------------------|-------------------------------------||
|---------------------------------------|-------------------------------------||
|---------------------------------------|-------------------------------------||


 Outro
  &
  N.C.                        G5Ab5 N.C.
   S S S S  S S S  S S  S S S S S S   S
|---------------------------------------|
|---------------------------------------|
|---------------------------------------|
|---------------------------------------|
|-----------------------------5-6-6-----|
|-12-0-0-0-13-0-0-15-0-13-0-0-5-6-6-/12-|


   +S  E S  S S S  S S  S S S  S S  S S
|----------------------------------------|
|----------------------------------------|
|----------------------------------------|
|----------------------------------------|
|----------------------------------------|
|-(12)-0-0-13-0-0-15-0-13-0-0-12-0-10-0--|


                              G5Ab5 N.C.
   S S S S  S S S  S S  S S S S S S   S
|---------------------------------------|
|---------------------------------------|
|---------------------------------------|
|---------------------------------------|
|-----------------------------5-6-6-----|
|-12-0-0-0-13-0-0-15-0-13-0-0-5-6-6-/12-|


   +S  E S  S S S  S S  S S S  S S  S S
|----------------------------------------|
|----------------------------------------|
|----------------------------------------|
|----------------------------------------|
|----------------------------------------|
|-(12)-0-0-13-0-0-15-0-13-0-0-12-0-10-0--|


                              G5Ab5 N.C.
   S S S S  S S S  S S  S S S S S S   S
|---------------------------------------|
|---------------------------------------|
|---------------------------------------|
|---------------------------------------|
|-----------------------------5-6-6-----|
|-12-0-0-0-13-0-0-15-0-13-0-0-5-6-6-/12-|


   +S  E S  S S S  S S  S S S  S S  S S
|----------------------------------------|
|----------------------------------------|
|----------------------------------------|
|----------------------------------------|
|----------------------------------------|
|-(12)-0-0-13-0-0-15-0-13-0-0-12-0-10-0--|


    G5              F5                           D5
                                                 PM|   PM------|
  S S S S S S S S S S E +Q     +H.      +E  E    S S S S e E S S E Q
|----------------------------|-----------------|-----------------------*|
|----------------------------|-----------------|-----------------------*|
|----------------------------|-----------------|-----------------------*|
|---5-5-5-5-5-5-5---3-3-(3)--|-(3)------(3)-3/-|-----------------------*|
|---5-5-5-5-5-5-5---3-3-(3)--|-(3)------(3)-3/-|-0-0---0-0-0-0-0-------*|
|-0-5-5-5-5-5-5-5---3-3-(3)--|-(3)------(3)-3/-|-0-0---0-0-0-0-0-------*|


Duration Legend
---------------
W - whole; H - half; Q - quarter; E - 8th; S - 16th; T - 32nd; X - 64th; a - acciaccatura
+ - note tied to previous; . - note dotted; .. - note double dotted
Uncapitalized letters represent notes that are staccato (1/2 duration)
Irregular groupings are notated above the duration line
Duration letters will always appear directly above the note/fret number it represents the
duration for.  Duration letters with no fret number below them represent rests.  Multi-
bar rests are notated in the form Wxn, where n is the number of bars to rest for.  Low
melody durations appear below the staff

Tablature Legend
----------------
 h   - hammer-on
 p   - pull-off
 b   - bend
 pb  - pre-bend
 r   - bend release (if no number after the r, then release immediately)
 /\  - slide into or out of (from/to "nowhere")
 s   - legato slide
 S   - shift slide
  - natural harmonic
[n]  - artificial harmonic
n(n) - tapped harmonic
 ~   - vibrato
 tr  - trill
 T   - tap
 TP  - trem. picking
 PM  - palm muting
\n/  - tremolo bar dip; n = amount to dip
 \n  - tremolo bar down
 n/  - tremolo bar up
/n\  - tremolo bar inverted dip
 =   - hold bend; also acts as connecting device for hammers/pulls
 <>  - volume swell (louder/softer)
 x   - on rhythm slash represents muted slash
 o   - on rhythm slash represents single note slash

Misc Legend
-----------
 |  - bar
||  - double bar
||o - repeat start
o|| - repeat end
*|  - double bar (ending)
 :  - bar (freetime)
 $  - Segno
 &  - Coda
Tempo markers -  = BPM(8/16=s8/s16), where s8 = swing 8ths, s16 = swing 16ths
Suggest correction
What's this?
You can suggest a correction to this tab. Community and Mods will review your correction and vote to approve or reject it.
comments
We did not receive enough feedback on this tab! Please rate:
print report bad tab
1 2 3 4 5
1 comment total.
0 reply
Metalsmack355 1,512 wrote on September 9 2006, 03:47 pm

by the way open chord is actully C5 not D5

guest
You may want to rate the tab now too:
select rating
Please do not post tabs as comments. Select "correction" instead!